  0
SECTION
  2
HEADER
  9
$ACADVER
  1
AC1015
  9
$ACADMAINTVER
 70
    14
  9
$DWGCODEPAGE
  3
ANSI_1252
  9
$INSBASE
 10
0.0
 20
0.0
 30
0.0
  9
$EXTMIN
 10
834.0425879096416
 20
468.7650130847313
 30
0.0
  9
$EXTMAX
 10
2374.513150658116
 20
921.4950646772276
 30
0.0
  9
$LIMMIN
 10
0.0
 20
0.0
  9
$LIMMAX
 10
420.0
 20
297.0
  9
$ORTHOMODE
 70
     0
  9
$REGENMODE
 70
     1
  9
$FILLMODE
 70
     1
  9
$QTEXTMODE
 70
     0
  9
$MIRRTEXT
 70
     1
  9
$LTSCALE
 40
1.0
  9
$ATTMODE
 70
     1
  9
$TEXTSIZE
 40
2.5
  9
$TRACEWID
 40
1.0
  9
$TEXTSTYLE
  7
STANDARD
  9
$CLAYER
  8
0
  9
$CELTYPE
  6
BYLAYER
  9
$CECOLOR
 62
   256
  9
$CELTSCALE
 40
1.0
  9
$DISPSILH
 70
     0
  9
$DIMSCALE
 40
1.0
  9
$DIMASZ
 40
2.5
  9
$DIMEXO
 40
0.625
  9
$DIMDLI
 40
3.75
  9
$DIMRND
 40
0.0
  9
$DIMDLE
 40
0.0
  9
$DIMEXE
 40
1.25
  9
$DIMTP
 40
0.0
  9
$DIMTM
 40
0.0
  9
$DIMTXT
 40
2.5
  9
$DIMCEN
 40
2.5
  9
$DIMTSZ
 40
0.0
  9
$DIMTOL
 70
     0
  9
$DIMLIM
 70
     0
  9
$DIMTIH
 70
     0
  9
$DIMTOH
 70
     0
  9
$DIMSE1
 70
     0
  9
$DIMSE2
 70
     0
  9
$DIMTAD
 70
     1
  9
$DIMZIN
 70
     8
  9
$DIMBLK
  1

  9
$DIMASO
 70
     1
  9
$DIMSHO
 70
     1
  9
$DIMPOST
  1

  9
$DIMAPOST
  1

  9
$DIMALT
 70
     0
  9
$DIMALTD
 70
     3
  9
$DIMALTF
 40
0.03937007874016
  9
$DIMLFAC
 40
1.0
  9
$DIMTOFL
 70
     1
  9
$DIMTVP
 40
0.0
  9
$DIMTIX
 70
     0
  9
$DIMSOXD
 70
     0
  9
$DIMSAH
 70
     0
  9
$DIMBLK1
  1

  9
$DIMBLK2
  1

  9
$DIMSTYLE
  2
ISO-25
  9
$DIMCLRD
 70
     0
  9
$DIMCLRE
 70
     0
  9
$DIMCLRT
 70
     0
  9
$DIMTFAC
 40
1.0
  9
$DIMGAP
 40
0.625
  9
$DIMJUST
 70
     0
  9
$DIMSD1
 70
     0
  9
$DIMSD2
 70
     0
  9
$DIMTOLJ
 70
     0
  9
$DIMTZIN
 70
     8
  9
$DIMALTZ
 70
     0
  9
$DIMALTTZ
 70
     0
  9
$DIMUPT
 70
     0
  9
$DIMDEC
 70
     2
  9
$DIMTDEC
 70
     2
  9
$DIMALTU
 70
     2
  9
$DIMALTTD
 70
     3
  9
$DIMTXSTY
  7
STANDARD
  9
$DIMAUNIT
 70
     0
  9
$DIMADEC
 70
     0
  9
$DIMALTRND
 40
0.0
  9
$DIMAZIN
 70
     0
  9
$DIMDSEP
 70
    46
  9
$DIMATFIT
 70
     3
  9
$DIMFRAC
 70
     0
  9
$DIMLDRBLK
  1

  9
$DIMLUNIT
 70
     2
  9
$DIMLWD
 70
    -2
  9
$DIMLWE
 70
    -2
  9
$DIMTMOVE
 70
     0
  9
$LUNITS
 70
     2
  9
$LUPREC
 70
     4
  9
$SKETCHINC
 40
1.0
  9
$FILLETRAD
 40
10.0
  9
$AUNITS
 70
     0
  9
$AUPREC
 70
     0
  9
$MENU
  1
.
  9
$ELEVATION
 40
0.0
  9
$PELEVATION
 40
0.0
  9
$THICKNESS
 40
0.0
  9
$LIMCHECK
 70
     0
  9
$CHAMFERA
 40
10.0
  9
$CHAMFERB
 40
10.0
  9
$CHAMFERC
 40
20.0
  9
$CHAMFERD
 40
0.0
  9
$SKPOLY
 70
     0
  9
$TDCREATE
 40
2452984.401453715
  9
$TDUCREATE
 40
2452984.359787048
  9
$TDUPDATE
 40
2452989.713497256
  9
$TDUUPDATE
 40
2452989.671830590
  9
$TDINDWG
 40
0.0304079630
  9
$TDUSRTIMER
 40
0.0304076042
  9
$USRTIMER
 70
     1
  9
$ANGBASE
 50
0.0
  9
$ANGDIR
 70
     0
  9
$PDMODE
 70
     0
  9
$PDSIZE
 40
0.0
  9
$PLINEWID
 40
0.0
  9
$SPLFRAME
 70
     0
  9
$SPLINETYPE
 70
     6
  9
$SPLINESEGS
 70
     8
  9
$HANDSEED
  5
6F4
  9
$SURFTAB1
 70
     6
  9
$SURFTAB2
 70
     6
  9
$SURFTYPE
 70
     6
  9
$SURFU
 70
     6
  9
$SURFV
 70
     6
  9
$UCSBASE
  2

  9
$UCSNAME
  2

  9
$UCSORG
 10
854.2778692838801
 20
695.1300388809794
 30
0.0
  9
$UCSXDIR
 10
1.0
 20
0.0
 30
0.0
  9
$UCSYDIR
 10
0.0
 20
1.0
 30
0.0
  9
$UCSORTHOREF
  2

  9
$UCSORTHOVIEW
 70
     0
  9
$UCSORGTOP
 10
0.0
 20
0.0
 30
0.0
  9
$UCSORGBOTTOM
 10
0.0
 20
0.0
 30
0.0
  9
$UCSORGLEFT
 10
0.0
 20
0.0
 30
0.0
  9
$UCSORGRIGHT
 10
0.0
 20
0.0
 30
0.0
  9
$UCSORGFRONT
 10
0.0
 20
0.0
 30
0.0
  9
$UCSORGBACK
 10
0.0
 20
0.0
 30
0.0
  9
$PUCSBASE
  2

  9
$PUCSNAME
  2

  9
$PUCSORG
 10
0.0
 20
0.0
 30
0.0
  9
$PUCSXDIR
 10
1.0
 20
0.0
 30
0.0
  9
$PUCSYDIR
 10
0.0
 20
1.0
 30
0.0
  9
$PUCSORTHOREF
  2

  9
$PUCSORTHOVIEW
 70
     0
  9
$PUCSORGTOP
 10
0.0
 20
0.0
 30
0.0
  9
$PUCSORGBOTTOM
 10
0.0
 20
0.0
 30
0.0
  9
$PUCSORGLEFT
 10
0.0
 20
0.0
 30
0.0
  9
$PUCSORGRIGHT
 10
0.0
 20
0.0
 30
0.0
  9
$PUCSORGFRONT
 10
0.0
 20
0.0
 30
0.0
  9
$PUCSORGBACK
 10
0.0
 20
0.0
 30
0.0
  9
$USERI1
 70
     0
  9
$USERI2
 70
     0
  9
$USERI3
 70
     0
  9
$USERI4
 70
     0
  9
$USERI5
 70
     0
  9
$USERR1
 40
0.0
  9
$USERR2
 40
0.0
  9
$USERR3
 40
0.0
  9
$USERR4
 40
0.0
  9
$USERR5
 40
0.0
  9
$WORLDVIEW
 70
     1
  9
$SHADEDGE
 70
     3
  9
$SHADEDIF
 70
    70
  9
$TILEMODE
 70
     1
  9
$MAXACTVP
 70
    64
  9
$PINSBASE
 10
0.0
 20
0.0
 30
0.0
  9
$PLIMCHECK
 70
     0
  9
$PEXTMIN
 10
28.8459315776825
 20
19.79506721496582
 30
0.0
  9
$PEXTMAX
 10
259.6133841991424
 20
178.1556049346923
 30
0.0
  9
$PLIMMIN
 10
-4.23333740234375
 20
-6.01133346557617
  9
$PLIMMAX
 10
292.6926574707031
 20
203.9619941711424
  9
$UNITMODE
 70
     0
  9
$VISRETAIN
 70
     1
  9
$PLINEGEN
 70
     0
  9
$PSLTSCALE
 70
     1
  9
$TREEDEPTH
 70
  3020
  9
$CMLSTYLE
  2
STANDARD
  9
$CMLJUST
 70
     0
  9
$CMLSCALE
 40
20.0
  9
$PROXYGRAPHICS
 70
     1
  9
$MEASUREMENT
 70
     0
  9
$CELWEIGHT
370
    -1
  9
$ENDCAPS
280
     0
  9
$JOINSTYLE
280
     0
  9
$LWDISPLAY
290
     0
  9
$INSUNITS
 70
     0
  9
$HYPERLINKBASE
  1

  9
$STYLESHEET
  1

  9
$XEDIT
290
     1
  9
$CEPSNTYPE
380
     0
  9
$PSTYLEMODE
290
     1
  9
$FINGERPRINTGUID
  2
{7B0C3155-18F2-4BE5-B248-0BC6EE868A0D}
  9
$VERSIONGUID
  2
{FCFB7EC9-3E85-43BF-BEB5-713F76BF775A}
  9
$EXTNAMES
290
     1
  9
$PSVPSCALE
 40
0.0
  9
$OLESTARTUP
290
     0
  0
ENDSEC
  0
SECTION
  2
CLASSES
  0
CLASS
  1
ACDBDICTIONARYWDFLT
  2
AcDbDictionaryWithDefault
  3
AutoCAD 2000
 90
        0
280
     0
281
     0
  0
CLASS
  1
ACDBPLACEHOLDER
  2
AcDbPlaceHolder
  3
AutoCAD 2000
 90
        0
280
     0
281
     0
  0
CLASS
  1
LAYOUT
  2
AcDbLayout
  3
AutoCAD 2000
 90
        0
280
     0
281
     0
  0
CLASS
  1
DICTIONARYVAR
  2
AcDbDictionaryVar
  3
AutoCAD 2000
 90
        0
280
     0
281
     0
  0
CLASS
  1
LONG_TRANSACTION
  2
AcDbLongTransaction
  3
AutoCAD 2000
 90
    32768
280
     0
281
     0
  0
CLASS
  1
LWPOLYLINE
  2
AcDbPolyline
  3
AutoCAD 2000
 90
    32768
280
     0
281
     1
  0
CLASS
  1
HATCH
  2
AcDbHatch
  3
AutoCAD 2000
 90
    32768
280
     0
281
     1
  0
CLASS
  1
XRECORD
  2
AcDbXrecord
  3
AutoCAD 2000
 90
    32768
280
     0
281
     0
  0
ENDSEC
  0
SECTION
  2
TABLES
  0
TABLE
  2
VPORT
  5
8
330
0
100
AcDbSymbolTable
 70
     2
  0
VPORT
  5
6F3
330
8
100
AcDbSymbolTableRecord
100
AcDbViewportTableRecord
  2
*Active
 70
     0
 10
0.0
 20
0.0
 11
1.0
 21
1.0
 12
1608.269878237217
 22
695.1427179871323
 13
0.0
 23
0.0
 14
10.0
 24
10.0
 15
10.0
 25
10.0
 16
0.0
 26
0.0
 36
1.0
 17
0.0
 27
0.0
 37
0.0
 40
1037.64338093571
 41
1.5
 42
50.0
 43
0.0
 44
0.0
 50
0.0
 51
0.0
 71
     0
 72
   100
 73
     1
 74
     3
 75
     0
 76
     0
 77
     0
 78
     0
281
     0
 65
     1
110
854.2778692838801
120
695.1300388809794
130
0.0
111
1.0
121
0.0
131
0.0
112
0.0
122
1.0
132
0.0
 79
     0
146
0.0
  0
ENDTAB
  0
TABLE
  2
LTYPE
  5
5
330
0
100
AcDbSymbolTable
 70
     2
  0
LTYPE
  5
14
330
5
100
AcDbSymbolTableRecord
100
AcDbLinetypeTableRecord
  2
BYBLOCK
 70
     0
  3

 72
    65
 73
     0
 40
0.0
  0
LTYPE
  5
15
330
5
100
AcDbSymbolTableRecord
100
AcDbLinetypeTableRecord
  2
BYLAYER
 70
     0
  3

 72
    65
 73
     0
 40
0.0
  0
LTYPE
  5
16
330
5
100
AcDbSymbolTableRecord
100
AcDbLinetypeTableRecord
  2
CONTINUOUS
 70
     0
  3
Solid line
 72
    65
 73
     0
 40
0.0
  0
LTYPE
  5
2CC
330
5
100
AcDbSymbolTableRecord
100
AcDbLinetypeTableRecord
  2
ACAD_ISO10W100
 70
     0
  3
ISO dash dot __ . __ . __ . __ . __ . __ . __ .
 72
    65
 73
     4
 40
18.0
 49
12.0
 74
     0
 49
-3.0
 74
     0
 49
0.0
 74
     0
 49
-3.0
 74
     0
  0
ENDTAB
  0
TABLE
  2
LAYER
  5
2
102
{ACAD_XDICTIONARY
360
2B
102
}
330
0
100
AcDbSymbolTable
 70
     1
  0
LAYER
  5
10
330
2
100
AcDbSymbolTableRecord
100
AcDbLayerTableRecord
  2
0
 70
     0
 62
     7
  6
CONTINUOUS
370
    -3
390
6E7
  0
ENDTAB
  0
TABLE
  2
STYLE
  5
3
330
0
100
AcDbSymbolTable
 70
     1
  0
STYLE
  5
11
330
3
100
AcDbSymbolTableRecord
100
AcDbTextStyleTableRecord
  2
STANDARD
 70
     0
 40
0.0
 41
1.0
 50
0.0
 71
     0
 42
2.5
  3
txt
  4

  0
ENDTAB
  0
TABLE
  2
VIEW
  5
6
330
0
100
AcDbSymbolTable
 70
     0
  0
ENDTAB
  0
TABLE
  2
UCS
  5
7
330
0
100
AcDbSymbolTable
 70
     0
  0
ENDTAB
  0
TABLE
  2
APPID
  5
9
330
0
100
AcDbSymbolTable
 70
     2
  0
APPID
  5
12
330
9
100
AcDbSymbolTableRecord
100
AcDbRegAppTableRecord
  2
ACAD
 70
     0
  0
APPID
  5
6D9
330
9
100
AcDbSymbolTableRecord
100
AcDbRegAppTableRecord
  2
CONTENTBLOCKICON
 70
     0
  0
ENDTAB
  0
TABLE
  2
DIMSTYLE
  5
A
330
0
100
AcDbSymbolTable
 70
     1
100
AcDbDimStyleTable
 71
     0
  0
DIMSTYLE
105
27
330
A
100
AcDbSymbolTableRecord
100
AcDbDimStyleTableRecord
  2
ISO-25
 70
     0
 41
2.5
 42
0.625
 43
3.75
 44
1.25
 73
     0
 74
     0
 77
     1
 78
     8
140
2.5
141
2.5
143
0.03937007874016
147
0.625
171
     3
172
     1
271
     2
272
     2
274
     3
283
     0
284
     8
340
11
  0
ENDTAB
  0
TABLE
  2
BLOCK_RECORD
  5
1
330
0
100
AcDbSymbolTable
 70
     1
  0
BLOCK_RECORD
  5
1F
102
{ACAD_XDICTIONARY
360
6D7
102
}
330
1
100
AcDbSymbolTableRecord
100
AcDbBlockTableRecord
  2
*MODEL_SPACE
340
6E8
  0
BLOCK_RECORD
  5
1B
102
{ACAD_XDICTIONARY
360
6D5
102
}
330
1
100
AcDbSymbolTableRecord
100
AcDbBlockTableRecord
  2
*PAPER_SPACE
340
6E9
  0
BLOCK_RECORD
  5
667
330
1
100
AcDbSymbolTableRecord
100
AcDbBlockTableRecord
  2
AU23D
340
0
310
2800000020000000200000000100080000000000000400000000000000000000000000000000000000000000000080000080000000808000800000008000800080800000C0C0C000C0DCC000F0CAA6000020400000206000002080000020A0000020C0000020E00000400000004020000040400000406000004080000040A0
310
000040C0000040E00000600000006020000060400000606000006080000060A0000060C0000060E00000800000008020000080400000806000008080000080A0000080C0000080E00000A0000000A0200000A0400000A0600000A0800000A0A00000A0C00000A0E00000C0000000C0200000C0400000C0600000C0800000C0
310
A00000C0C00000C0E00000E0000000E0200000E0400000E0600000E0800000E0A00000E0C00000E0E00040000000400020004000400040006000400080004000A0004000C0004000E00040200000402020004020400040206000402080004020A0004020C0004020E000404000004040200040404000404060004040800040
310
40A0004040C0004040E00040600000406020004060400040606000406080004060A0004060C0004060E00040800000408020004080400040806000408080004080A0004080C0004080E00040A0000040A0200040A0400040A0600040A0800040A0A00040A0C00040A0E00040C0000040C0200040C0400040C0600040C08000
310
40C0A00040C0C00040C0E00040E0000040E0200040E0400040E0600040E0800040E0A00040E0C00040E0E00080000000800020008000400080006000800080008000A0008000C0008000E00080200000802020008020400080206000802080008020A0008020C0008020E00080400000804020008040400080406000804080
310
008040A0008040C0008040E00080600000806020008060400080606000806080008060A0008060C0008060E00080800000808020008080400080806000808080008080A0008080C0008080E00080A0000080A0200080A0400080A0600080A0800080A0A00080A0C00080A0E00080C0000080C0200080C0400080C0600080C0
310
800080C0A00080C0C00080C0E00080E0000080E0200080E0400080E0600080E0800080E0A00080E0C00080E0E000C0000000C0002000C0004000C0006000C0008000C000A000C000C000C000E000C0200000C0202000C0204000C0206000C0208000C020A000C020C000C020E000C0400000C0402000C0404000C0406000C0
310
408000C040A000C040C000C040E000C0600000C0602000C0604000C0606000C0608000C060A000C060C000C060E000C0800000C0802000C0804000C0806000C0808000C080A000C080C000C080E000C0A00000C0A02000C0A04000C0A06000C0A08000C0A0A000C0A0C000C0A0E000C0C00000C0C02000C0C04000C0C06000
310
C0C08000C0C0A000F0FBFF00A4A0A000808080000000FF0000FF000000FFFF00FF000000FF00FF00FFFF0000FFFFFF0000000000000000000000000000000000000000000000000000000000000000000000000000000000000000000000000000000000000000000000000000000000000000000000000000000000000000
310
00000000000000000000000000000000000000000000000000000000000000000000000000000000000000000000000000000000000000000000000000000000000000000000000000000000000000000000000000000000000000000000000000000000000000000000000000000000000000000000000000000000000000
310
00000000000000000000000000000000000000000000000000000000000000000000000000000000000000000000000000000000000000000000000000000000000000000000000000000000000000000000000000000000000000000000000000000000000000000000000000000000000000000000000000000000000000
310
000000000000000000000000000000000000000000000000FFFFFFFFFFFFFFFFFF00000000000000000000000000000000000000000000FFFFFFFFFFFFFFFFFFFF000000000000000000000000000000000000000000FF00000000000000000000FF0000000000000000000000000000000000000000FF0000000000000000
310
0000FF000000000000000000000000000000000000FFFF000000000000000000000000FEFF000000000000000000000000FEFF0000FFFF000000000000000000000000FEFF000000000000000000000000FEFF000000000000000000000000000000000000FF00000000000000000000FF0000000000000000000000000000
310
000000000000FF00000000000000000000FF000000000000000000000000000000000000000000FFFFFFFFFFFFFFFFFFFF00000000000000000000000000000000000000000000FFFFFFFFFFFFFFFFFF0000000000000000000000000000000000000000000000000000000000000000000000000000000000000000000000
310
00000000000000000000000000000000000000000000000000000000000000000000000000000000000000000000000000000000000000000000000000000000000000000000000000000000000000000000000000000000000000000000000000000000000000000000000000000000000000000000000000000000000000
310
00000000000000000000000000000000000000000000000000000000000000000000000000000000000000000000000000000000000000000000000000000000000000000000000000000000000000000000000000000000000000000000000000000000000000000000000000000000000000000000000000000000000000
310
0000000000000000000000000000000000000000000000000000000000000000000000000000000000000000000000000000000000000000
102
{BLKREFS
331
6CC
102
}
1001
ACAD
1000
DesignCenter Data
1002
{
1070
     1
1070
     4
1002
}
  0
ENDTAB
  0
ENDSEC
  0
SECTION
  2
BLOCKS
  0
BLOCK
  5
20
330
1F
100
AcDbEntity
  8
0
100
AcDbBlockBegin
  2
*MODEL_SPACE
 70
     0
 10
0.0
 20
0.0
 30
0.0
  3
*MODEL_SPACE
  1

  0
ENDBLK
  5
21
330
1F
100
AcDbEntity
  8
0
100
AcDbBlockEnd
  0
BLOCK
  5
1C
330
1B
100
AcDbEntity
 67
     1
  8
0
100
AcDbBlockBegin
  2
*PAPER_SPACE
 70
     0
 10
0.0
 20
0.0
 30
0.0
  3
*PAPER_SPACE
  1

  0
ENDBLK
  5
1D
330
1B
100
AcDbEntity
 67
     1
  8
0
100
AcDbBlockEnd
  0
BLOCK
  5
668
330
667
100
AcDbEntity
  8
0
100
AcDbBlockBegin
  2
AU23D
 70
     0
 10
0.0
 20
0.0
 30
0.0
  3
AU23D
  1

  0
LINE
  5
66A
330
667
100
AcDbEntity
  8
0
 62
     7
100
AcDbLine
 10
593.9957631027191
 20
-223.4999999999998
 30
0.0
 11
156.0042368972863
 21
-223.4999999999998
 31
0.0
  0
LINE
  5
66B
330
667
100
AcDbEntity
  8
0
 62
     7
100
AcDbLine
 10
562.0399224678894
 20
-210.4999999999991
 30
0.0
 11
187.9600775321159
 21
-210.4999999999999
 31
0.0
  0
LINE
  5
66C
330
667
100
AcDbEntity
  8
0
 62
     7
100
AcDbLine
 10
25.86038507527701
 20
-26.42085954429421
 30
0.0
 11
134.4516152983123
 21
-211.1682477956319
 31
0.0
  0
LINE
  5
66D
330
667
100
AcDbEntity
  8
0
 62
     7
100
AcDbLine
 10
35.71781840782932
 20
-24.49650330780514
 30
0.0
 11
123.3022127352013
 21
-173.5047433868967
 31
0.0
  0
ARC
  5
66E
330
667
100
AcDbEntity
  8
0
 62
     7
100
AcDbCircle
 10
156.0042368972863
 20
-198.5
 30
0.0
 40
25.0
100
AcDbArc
 50
210.4462552412939
 51
270.0
  0
ARC
  5
66F
330
667
100
AcDbEntity
  8
0
 62
     7
100
AcDbCircle
 10
187.9600775321159
 20
-135.4999999999999
 30
0.0
 40
75.0
100
AcDbArc
 50
210.4462552412996
 51
270.0
  0
LINE
  5
670
330
667
100
AcDbEntity
  8
0
 62
     7
100
AcDbLine
 10
-0.150284093200753
 20
-10.5
 30
0.0
 11
5.120000000002619
 21
-10.5
 31
0.0
  0
LINE
  5
671
330
667
100
AcDbEntity
  8
0
 62
     7
100
AcDbLine
 10
-5.75
 20
22.5
 30
0.0
 11
17.85288811078135
 21
22.5
 31
0.0
  0
LINE
  5
672
330
667
100
AcDbEntity
  8
0
 62
     7
100
AcDbLine
 10
-5.25
 20
12.5
 30
0.0
 11
15.13794479973148
 21
12.5
 31
0.0
  0
LINE
  5
673
330
667
100
AcDbEntity
  8
0
 62
     7
100
AcDbLine
 10
6.545248191547216
 20
-6.787101521733347
 30
0.0
 11
-7.257391819075563
 21
5.640851365817978
 31
0.0
  0
LINE
  5
674
330
667
100
AcDbEntity
  8
0
  6
ACAD_ISO10W100
 62
     4
100
AcDbLine
 10
5.0
 20
0.0
 30
0.0
 11
-5.0
 21
0.0
 31
0.0
  0
ARC
  5
675
330
667
100
AcDbEntity
  8
0
 62
     7
100
AcDbCircle
 10
-0.150284093200753
 20
9.5
 30
0.0
 40
20.0
100
AcDbArc
 50
220.5383065500976
 51
270.0
  0
ARC
  5
676
330
667
100
AcDbEntity
  8
0
 62
     7
100
AcDbCircle
 10
-5.75
 20
10.5
 30
0.0
 40
12.0
100
AcDbArc
 50
90.0
 51
180.0
  0
ARC
  5
677
330
667
100
AcDbEntity
  8
0
 62
     7
100
AcDbCircle
 10
-7.75
 20
3.000437081160271
 30
0.0
 40
10.0
100
AcDbArc
 50
180.0
 51
220.5383065500976
  0
LINE
  5
678
330
667
100
AcDbEntity
  8
0
 62
     7
100
AcDbLine
 10
-17.75
 20
10.5
 30
0.0
 11
-17.75
 21
3.000437081160271
 31
0.0
  0
ARC
  5
679
330
667
100
AcDbEntity
  8
0
 62
     7
100
AcDbCircle
 10
-5.25
 20
9.5
 30
0.0
 40
3.0
100
AcDbArc
 50
90.0
 51
180.0
  0
LINE
  5
67A
330
667
100
AcDbEntity
  8
0
 62
     7
100
AcDbLine
 10
-8.25
 20
9.5
 30
0.0
 11
-8.25
 21
7.870285842249359
 31
0.0
  0
ARC
  5
67B
330
667
100
AcDbEntity
  8
0
 62
     7
100
AcDbCircle
 10
-5.25
 20
7.870285842249359
 30
0.0
 40
3.0
100
AcDbArc
 50
180.0
 51
228.000000000006
  0
LINE
  5
67C
330
667
100
AcDbEntity
  8
0
  6
ACAD_ISO10W100
 62
     4
100
AcDbLine
 10
0.0
 20
5.0
 30
0.0
 11
0.0
 21
-5.0
 31
0.0
  0
LINE
  5
67D
330
667
100
AcDbEntity
  8
0
 62
     7
100
AcDbLine
 10
32.39452791679831
 20
-14.31602513385677
 30
0.0
 11
29.7933259139827
 21
11.69412941840892
 31
0.0
  0
LINE
  5
67E
330
667
100
AcDbEntity
  8
0
 62
     7
100
AcDbLine
 10
22.53709458424781
 20
-16.24038137034585
 30
0.0
 11
20.11312721772992
 21
7.997553924336896
 31
0.0
  0
ARC
  5
67F
330
667
100
AcDbEntity
  8
0
 62
     7
100
AcDbCircle
 10
47.41300667424729
 20
-13.75261174866135
 30
0.0
 40
25.0
100
AcDbArc
 50
185.7109999999986
 51
210.4462552412996
  0
ARC
  5
680
330
667
100
AcDbEntity
  8
0
 62
     7
100
AcDbCircle
 10
5.120000000002619
 20
-8.369999999998981
 30
0.0
 40
2.129999999999999
100
AcDbArc
 50
270.0
 51
47.99999999997356
  0
ARC
  5
681
330
667
100
AcDbEntity
  8
0
 62
     7
100
AcDbCircle
 10
57.27044000679962
 20
-11.8282555121732
 30
0.0
 40
25.0
100
AcDbArc
 50
185.7109999999986
 51
210.4462552412996
  0
ARC
  5
682
330
667
100
AcDbEntity
  8
0
 62
     7
100
AcDbCircle
 10
17.85288811078135
 20
10.5
 30
0.0
 40
12.0
100
AcDbArc
 50
5.711000000005081
 51
90.0
  0
ARC
  5
683
330
667
100
AcDbEntity
  8
0
 62
     7
100
AcDbCircle
 10
15.13794479973148
 20
7.5
 30
0.0
 40
5.0
100
AcDbArc
 50
5.711000000005081
 51
90.0
  0
LINE
  5
684
330
667
100
AcDbEntity
  8
0
 62
     7
100
AcDbLine
 10
724.1396149247247
 20
-26.4208595442933
 30
0.0
 11
615.5483847016894
 21
-211.1682477956328
 31
0.0
  0
LINE
  5
685
330
667
100
AcDbEntity
  8
0
 62
     7
100
AcDbLine
 10
714.2821815921742
 20
-24.49650330780423
 30
0.0
 11
626.6977872648038
 21
-173.5047433868958
 31
0.0
  0
ARC
  5
686
330
667
100
AcDbEntity
  8
0
 62
     7
100
AcDbCircle
 10
562.0399224678894
 20
-135.4999999999989
 30
0.0
 40
75.0
100
AcDbArc
 50
270.0
 51
329.5537447587003
  0
ARC
  5
687
330
667
100
AcDbEntity
  8
0
 62
     7
100
AcDbCircle
 10
593.9957631027191
 20
-198.5
 30
0.0
 40
25.0
100
AcDbArc
 50
270.0
 51
329.5537447587003
  0
LINE
  5
688
330
667
100
AcDbEntity
  8
0
 62
     7
100
AcDbLine
 10
906.0042368972771
 20
223.4999999999998
 30
0.0
 11
1343.995763102711
 21
223.4999999999998
 31
0.0
  0
LINE
  5
689
330
667
100
AcDbEntity
  8
0
 62
     7
100
AcDbLine
 10
937.9600775321067
 20
210.4999999999991
 30
0.0
 11
1312.039922467882
 21
210.4999999999999
 31
0.0
  0
LINE
  5
68A
330
667
100
AcDbEntity
  8
0
 62
     7
100
AcDbLine
 10
775.8603850752706
 20
26.4208595442933
 30
0.0
 11
884.4516152983057
 21
211.1682477956328
 31
0.0
  0
ARC
  5
68B
330
667
100
AcDbEntity
  8
0
 62
     7
100
AcDbCircle
 10
807.2704400067941
 20
11.82825551217228
 30
0.0
 40
25.0
100
AcDbArc
 50
149.5537447587059
 51
174.2890000000012
  0
LINE
  5
68C
330
667
100
AcDbEntity
  8
0
 62
     7
100
AcDbLine
 10
727.4629054157538
 20
-16.24038137034313
 30
0.0
 11
729.8868727822682
 21
7.997553924336896
 31
0.0
  0
LINE
  5
68D
330
667
100
AcDbEntity
  8
0
 62
     7
100
AcDbLine
 10
743.4547518084563
 20
-6.787101521732437
 30
0.0
 11
757.2573918190772
 21
5.640851365818889
 31
0.0
  0
ARC
  5
68E
330
667
100
AcDbEntity
  8
0
 62
     7
100
AcDbCircle
 10
750.1502840932062
 20
9.5
 30
0.0
 40
20.0
100
AcDbArc
 50
270.0
 51
319.4616934498931
  0
LINE
  5
68F
330
667
100
AcDbEntity
  8
0
 62
     7
100
AcDbLine
 10
717.6054720832053
 20
-14.31602513385677
 30
0.0
 11
720.2066740860191
 21
11.69412941840892
 31
0.0
  0
LINE
  5
690
330
667
100
AcDbEntity
  8
0
 62
     7
100
AcDbLine
 10
772.5370945842414
 20
16.24038137034313
 30
0.0
 11
770.1131272177279
 21
-7.997553924336896
 31
0.0
  0
ARC
  5
691
330
667
100
AcDbEntity
  8
0
 62
     7
100
AcDbCircle
 10
744.7499999999982
 20
-7.870285842249359
 30
0.0
 40
3.0
100
AcDbArc
 50
132.0000000000447
 51
180.0
  0
LINE
  5
692
330
667
100
AcDbEntity
  8
0
 62
     7
100
AcDbLine
 10
782.3945279167909
 20
14.31602513385677
 30
0.0
 11
779.7933259139763
 21
-11.69412941840892
 31
0.0
  0
LINE
  5
693
330
667
100
AcDbEntity
  8
0
 62
     7
100
AcDbLine
 10
732.2499999999982
 20
-10.5
 30
0.0
 11
732.2499999999982
 21
-3.000437081160271
 31
0.0
  0
ARC
  5
694
330
667
100
AcDbEntity
  8
0
 62
     7
100
AcDbCircle
 10
744.2499999999983
 20
-10.5
 30
0.0
 40
12.0
100
AcDbArc
 50
180.0
 51
270.0
  0
ARC
  5
695
330
667
100
AcDbEntity
  8
0
 62
     7
100
AcDbCircle
 10
702.5869933257545
 20
-13.75261174866045
 30
0.0
 40
25.0
100
AcDbArc
 50
329.5537447587003
 51
354.2890000000019
  0
ARC
  5
696
330
667
100
AcDbEntity
  8
0
 62
     7
100
AcDbCircle
 10
692.7295599932022
 20
-11.82825551217228
 30
0.0
 40
25.0
100
AcDbArc
 50
329.5537447587059
 51
354.2890000000013
  0
LINE
  5
697
330
667
100
AcDbEntity
  8
0
 62
     7
100
AcDbLine
 10
744.7499999999982
 20
-12.5
 30
0.0
 11
765.1379447997259
 21
-12.5
 31
0.0
  0
LINE
  5
698
330
667
100
AcDbEntity
  8
0
 62
     7
100
AcDbLine
 10
744.2499999999983
 20
-22.5
 30
0.0
 11
767.8528881107759
 21
-22.5
 31
0.0
  0
ARC
  5
699
330
667
100
AcDbEntity
  8
0
 62
     7
100
AcDbCircle
 10
744.8800000000026
 20
-8.369999999998981
 30
0.0
 40
2.129999999999999
100
AcDbArc
 50
132.0000000000447
 51
270.0
  0
LINE
  5
69A
330
667
100
AcDbEntity
  8
0
 62
     7
100
AcDbLine
 10
750.1502840932062
 20
-10.5
 30
0.0
 11
744.8800000000026
 21
-10.5
 31
0.0
  0
ARC
  5
69B
330
667
100
AcDbEntity
  8
0
 62
     7
100
AcDbCircle
 10
744.7499999999982
 20
-9.5
 30
0.0
 40
3.0
100
AcDbArc
 50
180.0
 51
270.0
  0
LINE
  5
69C
330
667
100
AcDbEntity
  8
0
 62
     7
100
AcDbLine
 10
741.7499999999981
 20
-9.5
 30
0.0
 11
741.7499999999981
 21
-7.870285842249359
 31
0.0
  0
ARC
  5
69D
330
667
100
AcDbEntity
  8
0
 62
     7
100
AcDbCircle
 10
765.1379447997259
 20
-7.5
 30
0.0
 40
5.0
100
AcDbArc
 50
270.0
 51
354.2890000000013
  0
ARC
  5
69E
330
667
100
AcDbEntity
  8
0
 62
     7
100
AcDbCircle
 10
767.8528881107759
 20
-10.5
 30
0.0
 40
12.0
100
AcDbArc
 50
270.0
 51
354.2889999999948
  0
LINE
  5
69F
330
667
100
AcDbEntity
  8
0
 62
     7
100
AcDbLine
 10
755.2499999999981
 20
12.5
 30
0.0
 11
734.8620552002702
 21
12.5
 31
0.0
  0
LINE
  5
6A0
330
667
100
AcDbEntity
  8
0
 62
     7
100
AcDbLine
 10
755.7499999999983
 20
22.5
 30
0.0
 11
732.1471118892205
 21
22.5
 31
0.0
  0
ARC
  5
6A1
330
667
100
AcDbEntity
  8
0
 62
     7
100
AcDbCircle
 10
749.8497159067901
 20
-9.5
 30
0.0
 40
20.0
100
AcDbArc
 50
90.0
 51
139.461693449893
  0
ARC
  5
6A2
330
667
100
AcDbEntity
  8
0
 62
     7
100
AcDbCircle
 10
732.1471118892205
 20
10.5
 30
0.0
 40
12.0
100
AcDbArc
 50
90.0
 51
174.2889999999948
  0
ARC
  5
6A3
330
667
100
AcDbEntity
  8
0
 62
     7
100
AcDbCircle
 10
734.8620552002702
 20
7.5
 30
0.0
 40
5.0
100
AcDbArc
 50
90.0
 51
174.2890000000012
  0
ARC
  5
6A4
330
667
100
AcDbEntity
  8
0
 62
     7
100
AcDbCircle
 10
742.2499999999981
 20
-3.000437081160271
 30
0.0
 40
10.0
100
AcDbArc
 50
139.4616934499023
 51
180.0
  0
ARC
  5
6A5
330
667
100
AcDbEntity
  8
0
 62
     7
100
AcDbCircle
 10
755.7499999999983
 20
10.5
 30
0.0
 40
12.0
100
AcDbArc
 50
0.0
 51
90.0
  0
ARC
  5
6A6
330
667
100
AcDbEntity
  8
0
 62
     7
100
AcDbCircle
 10
797.4130066742418
 20
13.75261174866045
 30
0.0
 40
25.0
100
AcDbArc
 50
149.5537447587004
 51
174.2890000000019
  0
ARC
  5
6A7
330
667
100
AcDbEntity
  8
0
 62
     7
100
AcDbCircle
 10
755.2499999999981
 20
9.5
 30
0.0
 40
3.0
100
AcDbArc
 50
0.0
 51
90.0
  0
LINE
  5
6A8
330
667
100
AcDbEntity
  8
0
 62
     7
100
AcDbLine
 10
758.2499999999981
 20
9.5
 30
0.0
 11
758.2499999999981
 21
7.870285842249359
 31
0.0
  0
ARC
  5
6A9
330
667
100
AcDbEntity
  8
0
 62
     7
100
AcDbCircle
 10
755.2499999999981
 20
7.870285842249359
 30
0.0
 40
3.0
100
AcDbArc
 50
312.0000000000588
 51
0.0
  0
LINE
  5
6AA
330
667
100
AcDbEntity
  8
0
 62
     7
100
AcDbLine
 10
756.5452481915399
 20
6.787101521732437
 30
0.0
 11
742.7426081809198
 21
-5.640851365818889
 31
0.0
  0
ARC
  5
6AB
330
667
100
AcDbEntity
  8
0
 62
     7
100
AcDbCircle
 10
755.1199999999933
 20
8.369999999998981
 30
0.0
 40
2.129999999999999
100
AcDbArc
 50
312.0000000000448
 51
90.0
  0
LINE
  5
6AC
330
667
100
AcDbEntity
  8
0
 62
     7
100
AcDbLine
 10
749.8497159067901
 20
10.5
 30
0.0
 11
755.1199999999933
 21
10.5
 31
0.0
  0
LINE
  5
6AD
330
667
100
AcDbEntity
  8
0
  6
ACAD_ISO10W100
 62
     4
100
AcDbLine
 10
749.9999999999983
 20
5.0
 30
0.0
 11
749.9999999999983
 21
-5.0
 31
0.0
  0
LINE
  5
6AE
330
667
100
AcDbEntity
  8
0
  6
ACAD_ISO10W100
 62
     4
100
AcDbLine
 10
754.9999999999982
 20
0.0
 30
0.0
 11
744.9999999999981
 21
0.0
 31
0.0
  0
ARC
  5
6AF
330
667
100
AcDbEntity
  8
0
 62
     7
100
AcDbCircle
 10
757.7499999999981
 20
3.000437081160271
 30
0.0
 40
10.0
100
AcDbArc
 50
319.4616934499113
 51
0.0
  0
LINE
  5
6B0
330
667
100
AcDbEntity
  8
0
 62
     7
100
AcDbLine
 10
767.7499999999981
 20
10.5
 30
0.0
 11
767.7499999999981
 21
3.000437081160271
 31
0.0
  0
LINE
  5
6B1
330
667
100
AcDbEntity
  8
0
 62
     7
100
AcDbLine
 10
785.7178184078219
 20
24.49650330780423
 30
0.0
 11
873.3022127351924
 21
173.5047433868958
 31
0.0
  0
ARC
  5
6B2
330
667
100
AcDbEntity
  8
0
 62
     7
100
AcDbCircle
 10
906.0042368972771
 20
198.5
 30
0.0
 40
25.0
100
AcDbArc
 50
90.0
 51
149.5537447587004
  0
ARC
  5
6B3
330
667
100
AcDbEntity
  8
0
 62
     7
100
AcDbCircle
 10
937.9600775321067
 20
135.4999999999989
 30
0.0
 40
75.0
100
AcDbArc
 50
90.0
 51
149.5537447587004
  0
LINE
  5
6B4
330
667
100
AcDbEntity
  8
0
 62
     7
100
AcDbLine
 10
1474.139614924721
 20
26.42085954429421
 30
0.0
 11
1365.548384701686
 21
211.1682477956319
 31
0.0
  0
LINE
  5
6B5
330
667
100
AcDbEntity
  8
0
 62
     7
100
AcDbLine
 10
1464.282181592168
 20
24.49650330780514
 30
0.0
 11
1376.697787264796
 21
173.5047433868967
 31
0.0
  0
ARC
  5
6B6
330
667
100
AcDbEntity
  8
0
 62
     7
100
AcDbCircle
 10
1482.147111889215
 20
-10.5
 30
0.0
 40
12.0
100
AcDbArc
 50
185.711000000005
 51
270.0
  0
LINE
  5
6B7
330
667
100
AcDbEntity
  8
0
 62
     7
100
AcDbLine
 10
1467.605472083199
 20
14.31602513385677
 30
0.0
 11
1470.206674086015
 21
-11.69412941840892
 31
0.0
  0
ARC
  5
6B8
330
667
100
AcDbEntity
  8
0
 62
     7
100
AcDbCircle
 10
1442.729559993197
 20
11.8282555121732
 30
0.0
 40
25.0
100
AcDbArc
 50
5.710999999998601
 51
30.44625524129958
  0
ARC
  5
6B9
330
667
100
AcDbEntity
  8
0
 62
     7
100
AcDbCircle
 10
1505.249999999998
 20
-7.870285842249359
 30
0.0
 40
3.0
100
AcDbArc
 50
0.0
 51
48.00000000000601
  0
LINE
  5
6BA
330
667
100
AcDbEntity
  8
0
 62
     7
100
AcDbLine
 10
1477.46290541575
 20
16.24038137034585
 30
0.0
 11
1479.886872782266
 21
-7.997553924336896
 31
0.0
  0
LINE
  5
6BB
330
667
100
AcDbEntity
  8
0
 62
     7
100
AcDbLine
 10
1517.749999999998
 20
-10.5
 30
0.0
 11
1517.749999999998
 21
-3.000437081160271
 31
0.0
  0
ARC
  5
6BC
330
667
100
AcDbEntity
  8
0
 62
     7
100
AcDbCircle
 10
1505.749999999998
 20
-10.5
 30
0.0
 40
12.0
100
AcDbArc
 50
270.0
 51
0.0
  0
LINE
  5
6BD
330
667
100
AcDbEntity
  8
0
 62
     7
100
AcDbLine
 10
1505.249999999998
 20
-12.5
 30
0.0
 11
1484.862055200266
 21
-12.5
 31
0.0
  0
LINE
  5
6BE
330
667
100
AcDbEntity
  8
0
 62
     7
100
AcDbLine
 10
1505.749999999998
 20
-22.5
 30
0.0
 11
1482.147111889215
 21
-22.5
 31
0.0
  0
ARC
  5
6BF
330
667
100
AcDbEntity
  8
0
 62
     7
100
AcDbCircle
 10
1484.862055200266
 20
-7.5
 30
0.0
 40
5.0
100
AcDbArc
 50
185.7109999999986
 51
270.0
  0
ARC
  5
6C0
330
667
100
AcDbEntity
  8
0
 62
     7
100
AcDbCircle
 10
1505.249999999998
 20
-9.5
 30
0.0
 40
3.0
100
AcDbArc
 50
270.0
 51
0.0
  0
LINE
  5
6C1
330
667
100
AcDbEntity
  8
0
 62
     7
100
AcDbLine
 10
1508.249999999998
 20
-9.5
 30
0.0
 11
1508.249999999998
 21
-7.870285842249359
 31
0.0
  0
ARC
  5
6C2
330
667
100
AcDbEntity
  8
0
 62
     7
100
AcDbCircle
 10
1507.749999999997
 20
-3.000437081160271
 30
0.0
 40
10.0
100
AcDbArc
 50
0.0
 51
40.53830655010687
  0
ARC
  5
6C3
330
667
100
AcDbEntity
  8
0
 62
     7
100
AcDbCircle
 10
1452.586993325748
 20
13.75261174866135
 30
0.0
 40
25.0
100
AcDbArc
 50
5.710999999998601
 51
30.44625524129958
  0
ARC
  5
6C4
330
667
100
AcDbEntity
  8
0
 62
     7
100
AcDbCircle
 10
1494.879999999995
 20
8.369999999998981
 30
0.0
 40
2.129999999999999
100
AcDbArc
 50
90.0
 51
227.999999999955
  0
LINE
  5
6C5
330
667
100
AcDbEntity
  8
0
 62
     7
100
AcDbLine
 10
1493.454751808449
 20
6.787101521733347
 30
0.0
 11
1507.257391819073
 21
-5.640851365817978
 31
0.0
  0
LINE
  5
6C6
330
667
100
AcDbEntity
  8
0
 62
     7
100
AcDbLine
 10
1500.150284093199
 20
10.5
 30
0.0
 11
1494.879999999995
 21
10.5
 31
0.0
  0
ARC
  5
6C7
330
667
100
AcDbEntity
  8
0
 62
     7
100
AcDbCircle
 10
1500.150284093199
 20
-9.5
 30
0.0
 40
20.0
100
AcDbArc
 50
40.53830655009768
 51
90.0
  0
LINE
  5
6C8
330
667
100
AcDbEntity
  8
0
  6
ACAD_ISO10W100
 62
     4
100
AcDbLine
 10
1494.999999999998
 20
0.0
 30
0.0
 11
1504.999999999998
 21
0.0
 31
0.0
  0
LINE
  5
6C9
330
667
100
AcDbEntity
  8
0
  6
ACAD_ISO10W100
 62
     4
100
AcDbLine
 10
1499.999999999998
 20
-5.0
 30
0.0
 11
1499.999999999998
 21
5.0
 31
0.0
  0
ARC
  5
6CA
330
667
100
AcDbEntity
  8
0
 62
     7
100
AcDbCircle
 10
1312.039922467882
 20
135.4999999999999
 30
0.0
 40
75.0
100
AcDbArc
 50
30.44625524129958
 51
90.0
  0
ARC
  5
6CB
330
667
100
AcDbEntity
  8
0
 62
     7
100
AcDbCircle
 10
1343.995763102711
 20
198.5
 30
0.0
 40
25.0
100
AcDbArc
 50
30.44625524129396
 51
90.0
  0
ENDBLK
  5
669
330
667
100
AcDbEntity
  8
0
100
AcDbBlockEnd
  0
ENDSEC
  0
SECTION
  2
ENTITIES
  0
INSERT
  5
6CC
330
1F
100
AcDbEntity
  8
0
100
AcDbBlockReference
  2
AU23D
 10
854.2778692838801
 20
695.1300388809794
 30
0.0
  0
VIEWPORT
  5
6A
330
1B
100
AcDbEntity
 67
     1
  8
0
100
AcDbViewport
 10
144.2296600341796
 20
98.97533035278321
 30
0.0
 40
348.3547377345459
 41
222.1517806396483
 68
     1
 69
     1
 12
144.2296600341796
 22
98.97533035278321
 13
0.0
 23
0.0
 14
10.0
 24
10.0
 15
10.0
 25
10.0
 16
0.0
 26
0.0
 36
1.0
 17
0.0
 27
0.0
 37
0.0
 42
50.0
 43
0.0
 44
0.0
 45
222.1517806396483
 50
0.0
 51
0.0
 72
   100
 90
    32800
  1

281
     0
 71
     1
 74
     0
110
854.2778692838801
120
695.1300388809794
130
0.0
111
1.0
121
0.0
131
0.0
112
0.0
122
1.0
132
0.0
 79
     0
146
0.0
  0
VIEWPORT
  5
6C
330
1B
100
AcDbEntity
 67
     1
  8
0
100
AcDbViewport
 10
144.2296578884123
 20
98.97533607482912
 30
0.0
 40
230.7674526214599
 41
158.3605377197264
 68
     2
 69
     2
 12
471.9925402099685
 22
207.0118385025534
 13
0.0
 23
0.0
 14
10.0
 24
10.0
 15
10.0
 25
10.0
 16
0.0
 26
0.0
 36
1.0
 17
0.0
 27
0.0
 37
0.0
 42
50.0
 43
0.0
 44
0.0
 45
537.2024815614428
 50
0.0
 51
0.0
 72
   100
 90
    32864
  1

281
     0
 71
     1
 74
     0
110
854.2778692838801
120
695.1300388809794
130
0.0
111
1.0
121
0.0
131
0.0
112
0.0
122
1.0
132
0.0
 79
     0
146
0.0
  0
ENDSEC
  0
SECTION
  2
OBJECTS
  0
DICTIONARY
  5
C
330
0
100
AcDbDictionary
281
     1
  3
ACAD_GROUP
350
D
  3
ACAD_LAYOUT
350
1A
  3
ACAD_MLINESTYLE
350
17
  3
ACAD_PLOTSETTINGS
350
19
  3
ACAD_PLOTSTYLENAME
350
6E6
  3
AcDbVariableDictionary
350
6EE
1001
ACAD
1000
TREAT_AS_HARD
1070
     0
  0
DICTIONARY
  5
2B
330
2
100
AcDbDictionary
280
     1
281
     1
  3
ACAD_LAYERFILTERS
360
2C
1001
ACAD
1000
TREAT_AS_HARD
1070
     1
  0
DICTIONARY
  5
6D7
330
1F
100
AcDbDictionary
280
     1
281
     1
  3
ACAD_LAYOUTSELFREF
360
6D8
  0
DICTIONARY
  5
6D5
330
1B
100
AcDbDictionary
280
     1
281
     1
  3
ACAD_LAYOUTSELFREF
360
6D6
  0
DICTIONARY
  5
D
102
{ACAD_REACTORS
330
C
102
}
330
C
100
AcDbDictionary
281
     1
1001
ACAD
1000
TREAT_AS_HARD
1070
     0
  0
DICTIONARY
  5
1A
102
{ACAD_REACTORS
330
C
102
}
330
C
100
AcDbDictionary
281
     1
  3
Layout1
350
6E9
  3
Model
350
6E8
1001
ACAD
1000
TREAT_AS_HARD
1070
     0
  0
DICTIONARY
  5
17
102
{ACAD_REACTORS
330
C
102
}
330
C
100
AcDbDictionary
281
     1
  3
STANDARD
350
18
1001
ACAD
1000
TREAT_AS_HARD
1070
     0
  0
DICTIONARY
  5
19
102
{ACAD_REACTORS
330
C
102
}
330
C
100
AcDbDictionary
281
     1
1001
ACAD
1000
TREAT_AS_HARD
1070
     0
  0
ACDBDICTIONARYWDFLT
  5
6E6
102
{ACAD_REACTORS
330
C
102
}
330
C
100
AcDbDictionary
281
     1
  3
Normal
350
6E7
100
AcDbDictionaryWithDefault
340
6E7
  0
DICTIONARY
  5
6EE
102
{ACAD_REACTORS
330
C
102
}
330
C
100
AcDbDictionary
281
     1
  3
DIMASSOC
350
6EF
  0
DICTIONARY
  5
2C
102
{ACAD_REACTORS
330
2B
102
}
330
2B
100
AcDbDictionary
281
     1
  3
GEO
350
2D
  3
RAK
350
2E
  3
RAK_GEO
350
2F
1001
ACAD
1000
TREAT_AS_HARD
1070
     1
  0
XRECORD
  5
6D8
102
{ACAD_REACTORS
330
6D7
102
}
330
6D7
100
AcDbXrecord
280
     1
340
1F
  0
XRECORD
  5
6D6
102
{ACAD_REACTORS
330
6D5
102
}
330
6D5
100
AcDbXrecord
280
     1
340
1B
  0
LAYOUT
  5
6E9
102
{ACAD_REACTORS
330
1A
102
}
330
1A
100
AcDbPlotSettings
  1

  2
\\aobsrv1\FIN9
  4

  6

 40
0.0
 41
0.0
 42
0.0
 43
0.0
 44
0.0
 45
0.0
 46
0.0
 47
0.0
 48
0.0
 49
0.0
140
0.0
141
0.0
142
1.0
143
1.0
 70
   688
 72
     0
 73
     0
 74
     5
  7

 75
    16
147
1.0
148
0.0
149
0.0
100
AcDbLayout
  1
Layout1
 70
     1
 71
     1
 10
-4.23333740234375
 20
-6.01133346557617
 11
292.6926574707031
 21
203.9619941711424
 12
0.0
 22
0.0
 32
0.0
 14
28.8459315776825
 24
19.79506721496582
 34
0.0
 15
259.6133841991424
 25
178.1556049346923
 35
0.0
146
0.0
 13
0.0
 23
0.0
 33
0.0
 16
1.0
 26
0.0
 36
0.0
 17
0.0
 27
1.0
 37
0.0
 76
     0
330
1B
331
6A
  0
LAYOUT
  5
6E8
102
{ACAD_REACTORS
330
1A
102
}
330
1A
100
AcDbPlotSettings
  1

  2
\\aobsrv1\FIN9
  4

  6

 40
0.0
 41
0.0
 42
0.0
 43
0.0
 44
0.0
 45
0.0
 46
0.0
 47
0.0
 48
0.0
 49
0.0
140
0.0
141
0.0
142
1.0
143
1.0
 70
  1712
 72
     0
 73
     0
 74
     0
  7

 75
     0
147
1.0
148
0.0
149
0.0
100
AcDbLayout
  1
Model
 70
     1
 71
     0
 10
0.0
 20
0.0
 11
12.0
 21
9.0
 12
0.0
 22
0.0
 32
0.0
 14
0.0
 24
0.0
 34
0.0
 15
0.0
 25
0.0
 35
0.0
146
0.0
 13
0.0
 23
0.0
 33
0.0
 16
1.0
 26
0.0
 36
0.0
 17
0.0
 27
1.0
 37
0.0
 76
     0
330
1F
  0
MLINESTYLE
  5
18
102
{ACAD_REACTORS
330
17
102
}
330
17
100
AcDbMlineStyle
  2
STANDARD
 70
     0
  3

 62
   256
 51
90.0
 52
90.0
 71
     2
 49
0.5
 62
   256
  6
BYLAYER
 49
-0.5
 62
   256
  6
BYLAYER
  0
ACDBPLACEHOLDER
  5
6E7
102
{ACAD_REACTORS
330
6E6
102
}
330
6E6
  0
DICTIONARYVAR
  5
6EF
102
{ACAD_REACTORS
330
6EE
102
}
330
6EE
100
DictionaryVariables
280
     0
  1
1
  0
XRECORD
  5
2D
102
{ACAD_REACTORS
330
2C
102
}
330
2C
100
AcDbXrecord
280
     1
  1
GEO
  1
GEO-*
  1
*
  1
*
 70
     0
  1
*
  1
*
  0
XRECORD
  5
2E
102
{ACAD_REACTORS
330
2C
102
}
330
2C
100
AcDbXrecord
280
     1
  1
RAK
  1
RAK-*
  1
*
  1
*
 70
     0
  1
*
  1
*
  0
XRECORD
  5
2F
102
{ACAD_REACTORS
330
2C
102
}
330
2C
100
AcDbXrecord
280
     1
  1
RAK&GEO
  1
RAK-*,GEO-*
  1
*
  1
*
 70
     0
  1
*
  1
*
  0
ENDSEC
  0
EOF
