  0
SECTION
  2
HEADER
  9
$ACADVER
  1
AC1015
  9
$ACADMAINTVER
 70
    14
  9
$DWGCODEPAGE
  3
ANSI_1252
  9
$INSBASE
 10
0.0
 20
0.0
 30
0.0
  9
$EXTMIN
 10
316.5036109934957
 20
30.01258609544228
 30
0.0
  9
$EXTMAX
 10
1855.559960179599
 20
441.5307091657284
 30
0.0
  9
$LIMMIN
 10
0.0
 20
0.0
  9
$LIMMAX
 10
420.0
 20
297.0
  9
$ORTHOMODE
 70
     0
  9
$REGENMODE
 70
     1
  9
$FILLMODE
 70
     1
  9
$QTEXTMODE
 70
     0
  9
$MIRRTEXT
 70
     1
  9
$LTSCALE
 40
1.0
  9
$ATTMODE
 70
     1
  9
$TEXTSIZE
 40
2.5
  9
$TRACEWID
 40
1.0
  9
$TEXTSTYLE
  7
Standard
  9
$CLAYER
  8
1
  9
$CELTYPE
  6
ByLayer
  9
$CECOLOR
 62
   256
  9
$CELTSCALE
 40
1.0
  9
$DISPSILH
 70
     0
  9
$DIMSCALE
 40
1.0
  9
$DIMASZ
 40
2.5
  9
$DIMEXO
 40
0.625
  9
$DIMDLI
 40
3.75
  9
$DIMRND
 40
0.0
  9
$DIMDLE
 40
0.0
  9
$DIMEXE
 40
1.25
  9
$DIMTP
 40
0.0
  9
$DIMTM
 40
0.0
  9
$DIMTXT
 40
2.5
  9
$DIMCEN
 40
2.5
  9
$DIMTSZ
 40
0.0
  9
$DIMTOL
 70
     0
  9
$DIMLIM
 70
     0
  9
$DIMTIH
 70
     0
  9
$DIMTOH
 70
     0
  9
$DIMSE1
 70
     0
  9
$DIMSE2
 70
     0
  9
$DIMTAD
 70
     1
  9
$DIMZIN
 70
     8
  9
$DIMBLK
  1

  9
$DIMASO
 70
     1
  9
$DIMSHO
 70
     1
  9
$DIMPOST
  1

  9
$DIMAPOST
  1

  9
$DIMALT
 70
     0
  9
$DIMALTD
 70
     3
  9
$DIMALTF
 40
0.03937007874016
  9
$DIMLFAC
 40
1.0
  9
$DIMTOFL
 70
     1
  9
$DIMTVP
 40
0.0
  9
$DIMTIX
 70
     0
  9
$DIMSOXD
 70
     0
  9
$DIMSAH
 70
     0
  9
$DIMBLK1
  1

  9
$DIMBLK2
  1

  9
$DIMSTYLE
  2
ISO-25
  9
$DIMCLRD
 70
     0
  9
$DIMCLRE
 70
     0
  9
$DIMCLRT
 70
     0
  9
$DIMTFAC
 40
1.0
  9
$DIMGAP
 40
0.625
  9
$DIMJUST
 70
     0
  9
$DIMSD1
 70
     0
  9
$DIMSD2
 70
     0
  9
$DIMTOLJ
 70
     0
  9
$DIMTZIN
 70
     8
  9
$DIMALTZ
 70
     0
  9
$DIMALTTZ
 70
     0
  9
$DIMUPT
 70
     0
  9
$DIMDEC
 70
     2
  9
$DIMTDEC
 70
     2
  9
$DIMALTU
 70
     2
  9
$DIMALTTD
 70
     3
  9
$DIMTXSTY
  7
Standard
  9
$DIMAUNIT
 70
     0
  9
$DIMADEC
 70
     0
  9
$DIMALTRND
 40
0.0
  9
$DIMAZIN
 70
     0
  9
$DIMDSEP
 70
    44
  9
$DIMATFIT
 70
     3
  9
$DIMFRAC
 70
     0
  9
$DIMLDRBLK
  1

  9
$DIMLUNIT
 70
     2
  9
$DIMLWD
 70
    -2
  9
$DIMLWE
 70
    -2
  9
$DIMTMOVE
 70
     0
  9
$LUNITS
 70
     2
  9
$LUPREC
 70
     4
  9
$SKETCHINC
 40
1.0
  9
$FILLETRAD
 40
10.0
  9
$AUNITS
 70
     0
  9
$AUPREC
 70
     0
  9
$MENU
  1
.
  9
$ELEVATION
 40
0.0
  9
$PELEVATION
 40
0.0
  9
$THICKNESS
 40
0.0
  9
$LIMCHECK
 70
     0
  9
$CHAMFERA
 40
10.0
  9
$CHAMFERB
 40
10.0
  9
$CHAMFERC
 40
20.0
  9
$CHAMFERD
 40
0.0
  9
$SKPOLY
 70
     0
  9
$TDCREATE
 40
2452984.401453715
  9
$TDUCREATE
 40
2452984.359787048
  9
$TDUPDATE
 40
2452989.714444525
  9
$TDUUPDATE
 40
2452989.672777859
  9
$TDINDWG
 40
0.0137078819
  9
$TDUSRTIMER
 40
0.0137076968
  9
$USRTIMER
 70
     1
  9
$ANGBASE
 50
0.0
  9
$ANGDIR
 70
     0
  9
$PDMODE
 70
     0
  9
$PDSIZE
 40
0.0
  9
$PLINEWID
 40
0.0
  9
$SPLFRAME
 70
     0
  9
$SPLINETYPE
 70
     6
  9
$SPLINESEGS
 70
     8
  9
$HANDSEED
  5
1A2
  9
$SURFTAB1
 70
     6
  9
$SURFTAB2
 70
     6
  9
$SURFTYPE
 70
     6
  9
$SURFU
 70
     6
  9
$SURFV
 70
     6
  9
$UCSBASE
  2

  9
$UCSNAME
  2

  9
$UCSORG
 10
336.0317855865478
 20
235.7716476305854
 30
0.0
  9
$UCSXDIR
 10
1.0
 20
0.0
 30
0.0
  9
$UCSYDIR
 10
0.0
 20
1.0
 30
0.0
  9
$UCSORTHOREF
  2

  9
$UCSORTHOVIEW
 70
     0
  9
$UCSORGTOP
 10
0.0
 20
0.0
 30
0.0
  9
$UCSORGBOTTOM
 10
0.0
 20
0.0
 30
0.0
  9
$UCSORGLEFT
 10
0.0
 20
0.0
 30
0.0
  9
$UCSORGRIGHT
 10
0.0
 20
0.0
 30
0.0
  9
$UCSORGFRONT
 10
0.0
 20
0.0
 30
0.0
  9
$UCSORGBACK
 10
0.0
 20
0.0
 30
0.0
  9
$PUCSBASE
  2

  9
$PUCSNAME
  2

  9
$PUCSORG
 10
0.0
 20
0.0
 30
0.0
  9
$PUCSXDIR
 10
1.0
 20
0.0
 30
0.0
  9
$PUCSYDIR
 10
0.0
 20
1.0
 30
0.0
  9
$PUCSORTHOREF
  2

  9
$PUCSORTHOVIEW
 70
     0
  9
$PUCSORGTOP
 10
0.0
 20
0.0
 30
0.0
  9
$PUCSORGBOTTOM
 10
0.0
 20
0.0
 30
0.0
  9
$PUCSORGLEFT
 10
0.0
 20
0.0
 30
0.0
  9
$PUCSORGRIGHT
 10
0.0
 20
0.0
 30
0.0
  9
$PUCSORGFRONT
 10
0.0
 20
0.0
 30
0.0
  9
$PUCSORGBACK
 10
0.0
 20
0.0
 30
0.0
  9
$USERI1
 70
     0
  9
$USERI2
 70
     0
  9
$USERI3
 70
     0
  9
$USERI4
 70
     0
  9
$USERI5
 70
     0
  9
$USERR1
 40
0.0
  9
$USERR2
 40
0.0
  9
$USERR3
 40
0.0
  9
$USERR4
 40
0.0
  9
$USERR5
 40
0.0
  9
$WORLDVIEW
 70
     1
  9
$SHADEDGE
 70
     3
  9
$SHADEDIF
 70
    70
  9
$TILEMODE
 70
     1
  9
$MAXACTVP
 70
    64
  9
$PINSBASE
 10
0.0
 20
0.0
 30
0.0
  9
$PLIMCHECK
 70
     0
  9
$PEXTMIN
 10
28.8459315776825
 20
19.79506721496582
 30
0.0
  9
$PEXTMAX
 10
259.6133841991424
 20
178.1556049346923
 30
0.0
  9
$PLIMMIN
 10
-4.23333740234375
 20
-6.011333465576171
  9
$PLIMMAX
 10
292.6926574707031
 20
203.9619941711425
  9
$UNITMODE
 70
     0
  9
$VISRETAIN
 70
     1
  9
$PLINEGEN
 70
     0
  9
$PSLTSCALE
 70
     1
  9
$TREEDEPTH
 70
  3020
  9
$CMLSTYLE
  2
Standard
  9
$CMLJUST
 70
     0
  9
$CMLSCALE
 40
20.0
  9
$PROXYGRAPHICS
 70
     1
  9
$MEASUREMENT
 70
     1
  9
$CELWEIGHT
370
    -1
  9
$ENDCAPS
280
     0
  9
$JOINSTYLE
280
     0
  9
$LWDISPLAY
290
     0
  9
$INSUNITS
 70
     4
  9
$HYPERLINKBASE
  1

  9
$STYLESHEET
  1

  9
$XEDIT
290
     1
  9
$CEPSNTYPE
380
     0
  9
$PSTYLEMODE
290
     1
  9
$FINGERPRINTGUID
  2
{1F0C9108-7A24-43FE-92C0-F61D6143634A}
  9
$VERSIONGUID
  2
{E5BDDD91-19BF-46E1-B1C5-0C642D744E78}
  9
$EXTNAMES
290
     1
  9
$PSVPSCALE
 40
0.0
  9
$OLESTARTUP
290
     0
  0
ENDSEC
  0
SECTION
  2
CLASSES
  0
CLASS
  1
ACDBDICTIONARYWDFLT
  2
AcDbDictionaryWithDefault
  3
AutoCAD 2000
 90
        0
280
     0
281
     0
  0
CLASS
  1
ACDBPLACEHOLDER
  2
AcDbPlaceHolder
  3
AutoCAD 2000
 90
        0
280
     0
281
     0
  0
CLASS
  1
LAYOUT
  2
AcDbLayout
  3
AutoCAD 2000
 90
        0
280
     0
281
     0
  0
CLASS
  1
DICTIONARYVAR
  2
AcDbDictionaryVar
  3
AutoCAD 2000
 90
        0
280
     0
281
     0
  0
ENDSEC
  0
SECTION
  2
TABLES
  0
TABLE
  2
VPORT
  5
8
330
0
100
AcDbSymbolTable
 70
     2
  0
VPORT
  5
1A1
330
8
100
AcDbSymbolTableRecord
100
AcDbViewportTableRecord
  2
*Active
 70
     0
 10
0.0
 20
0.0
 11
1.0
 21
1.0
 12
1090.063206895273
 22
235.7797177451631
 13
0.0
 23
0.0
 14
10.0
 24
10.0
 15
10.0
 25
10.0
 16
0.0
 26
0.0
 36
1.0
 17
0.0
 27
0.0
 37
0.0
 40
1036.687782475981
 41
1.5
 42
50.0
 43
0.0
 44
0.0
 50
0.0
 51
0.0
 71
     0
 72
   100
 73
     1
 74
     3
 75
     0
 76
     0
 77
     0
 78
     0
281
     0
 65
     1
110
336.0317855865478
120
235.7716476305854
130
0.0
111
1.0
121
0.0
131
0.0
112
0.0
122
1.0
132
0.0
 79
     0
146
0.0
  0
ENDTAB
  0
TABLE
  2
LTYPE
  5
5
330
0
100
AcDbSymbolTable
 70
     2
  0
LTYPE
  5
14
330
5
100
AcDbSymbolTableRecord
100
AcDbLinetypeTableRecord
  2
ByBlock
 70
     0
  3

 72
    65
 73
     0
 40
0.0
  0
LTYPE
  5
15
330
5
100
AcDbSymbolTableRecord
100
AcDbLinetypeTableRecord
  2
ByLayer
 70
     0
  3

 72
    65
 73
     0
 40
0.0
  0
LTYPE
  5
16
330
5
100
AcDbSymbolTableRecord
100
AcDbLinetypeTableRecord
  2
Continuous
 70
     0
  3
Solid line
 72
    65
 73
     0
 40
0.0
  0
LTYPE
  5
B2
330
5
100
AcDbSymbolTableRecord
100
AcDbLinetypeTableRecord
  2
CENTER
 70
     0
  3
____ _ ____ _ ____ _ ____ _ ____ _ ____ _ ____
 72
    65
 73
     4
 40
2.0
 49
1.25
 74
     0
 49
-0.25
 74
     0
 49
0.25
 74
     0
 49
-0.25
 74
     0
  0
ENDTAB
  0
TABLE
  2
LAYER
  5
2
102
{ACAD_XDICTIONARY
360
2B
102
}
330
0
100
AcDbSymbolTable
 70
     2
  0
LAYER
  5
10
330
2
100
AcDbSymbolTableRecord
100
AcDbLayerTableRecord
  2
0
 70
     0
 62
     7
  6
Continuous
370
    -3
390
F
  0
LAYER
  5
B3
330
2
100
AcDbSymbolTableRecord
100
AcDbLayerTableRecord
  2
1
 70
     0
 62
     7
  6
Continuous
370
    -3
390
F
  0
ENDTAB
  0
TABLE
  2
STYLE
  5
3
330
0
100
AcDbSymbolTable
 70
     1
  0
STYLE
  5
11
330
3
100
AcDbSymbolTableRecord
100
AcDbTextStyleTableRecord
  2
Standard
 70
     0
 40
0.0
 41
1.0
 50
0.0
 71
     0
 42
2.5
  3
txt
  4

  0
ENDTAB
  0
TABLE
  2
VIEW
  5
6
330
0
100
AcDbSymbolTable
 70
     0
  0
ENDTAB
  0
TABLE
  2
UCS
  5
7
330
0
100
AcDbSymbolTable
 70
     0
  0
ENDTAB
  0
TABLE
  2
APPID
  5
9
330
0
100
AcDbSymbolTable
 70
     1
  0
APPID
  5
12
330
9
100
AcDbSymbolTableRecord
100
AcDbRegAppTableRecord
  2
ACAD
 70
     0
  0
ENDTAB
  0
TABLE
  2
DIMSTYLE
  5
A
330
0
100
AcDbSymbolTable
 70
     1
100
AcDbDimStyleTable
 71
     0
  0
DIMSTYLE
105
27
330
A
100
AcDbSymbolTableRecord
100
AcDbDimStyleTableRecord
  2
ISO-25
 70
     0
 41
2.5
 42
0.625
 43
3.75
 44
1.25
 73
     0
 74
     0
 77
     1
 78
     8
140
2.5
141
2.5
143
0.03937007874016
147
0.625
171
     3
172
     1
271
     2
272
     2
274
     3
278
    44
283
     0
284
     8
340
11
  0
ENDTAB
  0
TABLE
  2
BLOCK_RECORD
  5
1
330
0
100
AcDbSymbolTable
 70
     1
  0
BLOCK_RECORD
  5
1F
330
1
100
AcDbSymbolTableRecord
100
AcDbBlockTableRecord
  2
*Model_Space
340
22
  0
BLOCK_RECORD
  5
1B
330
1
100
AcDbSymbolTableRecord
100
AcDbBlockTableRecord
  2
*Paper_Space
340
1E
  0
BLOCK_RECORD
  5
129
330
1
100
AcDbSymbolTableRecord
100
AcDbBlockTableRecord
  2
au14d
340
0
310
2800000020000000200000000100080000000000000400000000000000000000000000000000000000000000000080000080000000808000800000008000800080800000C0C0C000C0DCC000F0CAA6000020400000206000002080000020A0000020C0000020E00000400000004020000040400000406000004080000040A0
310
000040C0000040E00000600000006020000060400000606000006080000060A0000060C0000060E00000800000008020000080400000806000008080000080A0000080C0000080E00000A0000000A0200000A0400000A0600000A0800000A0A00000A0C00000A0E00000C0000000C0200000C0400000C0600000C0800000C0
310
A00000C0C00000C0E00000E0000000E0200000E0400000E0600000E0800000E0A00000E0C00000E0E00040000000400020004000400040006000400080004000A0004000C0004000E00040200000402020004020400040206000402080004020A0004020C0004020E000404000004040200040404000404060004040800040
310
40A0004040C0004040E00040600000406020004060400040606000406080004060A0004060C0004060E00040800000408020004080400040806000408080004080A0004080C0004080E00040A0000040A0200040A0400040A0600040A0800040A0A00040A0C00040A0E00040C0000040C0200040C0400040C0600040C08000
310
40C0A00040C0C00040C0E00040E0000040E0200040E0400040E0600040E0800040E0A00040E0C00040E0E00080000000800020008000400080006000800080008000A0008000C0008000E00080200000802020008020400080206000802080008020A0008020C0008020E00080400000804020008040400080406000804080
310
008040A0008040C0008040E00080600000806020008060400080606000806080008060A0008060C0008060E00080800000808020008080400080806000808080008080A0008080C0008080E00080A0000080A0200080A0400080A0600080A0800080A0A00080A0C00080A0E00080C0000080C0200080C0400080C0600080C0
310
800080C0A00080C0C00080C0E00080E0000080E0200080E0400080E0600080E0800080E0A00080E0C00080E0E000C0000000C0002000C0004000C0006000C0008000C000A000C000C000C000E000C0200000C0202000C0204000C0206000C0208000C020A000C020C000C020E000C0400000C0402000C0404000C0406000C0
310
408000C040A000C040C000C040E000C0600000C0602000C0604000C0606000C0608000C060A000C060C000C060E000C0800000C0802000C0804000C0806000C0808000C080A000C080C000C080E000C0A00000C0A02000C0A04000C0A06000C0A08000C0A0A000C0A0C000C0A0E000C0C00000C0C02000C0C04000C0C06000
310
C0C08000C0C0A000F0FBFF00A4A0A000808080000000FF0000FF000000FFFF00FF000000FF00FF00FFFF0000FFFFFF0000000000000000000000000000000000000000000000000000000000000000000000000000000000000000000000000000000000000000000000000000000000000000000000000000000000000000
310
00000000000000000000000000000000000000000000000000000000000000000000000000000000000000000000000000000000000000000000000000000000000000000000000000000000000000000000000000000000000000000000000000000000000000000000000000000000000000000000000000000000000000
310
00000000000000000000000000000000000000000000000000000000000000000000000000000000000000000000000000000000000000000000000000000000000000000000000000000000000000000000000000000000000000000000000000000000000000000000000000000000000000000000000000000000000000
310
0000000000000000000000000000000000000000000000000000000000000000000000000000000000000000000000000000000000000000FFFFFFFFFFFFFFFF0000000000000000000000000000000000000000000000FF0000000000000000FF000000000000000000000000000000000000000000FF0000000000000000
310
0000FF000000000000000000000000000000000000FFFF000000000000000000000000FFFF000000000000000000000000FEFF0000FFFF000000000000000000000000FFFF000000000000000000000000FFFF000000000000000000000000000000000000FF00000000000000000000FF0000000000000000000000000000
310
00000000000000FF0000000000000000FF0000000000000000000000000000000000000000000000FFFFFFFFFFFFFFFF00000000000000000000000000000000000000000000000000000000000000000000000000000000000000000000000000000000000000000000000000000000000000000000000000000000000000
310
00000000000000000000000000000000000000000000000000000000000000000000000000000000000000000000000000000000000000000000000000000000000000000000000000000000000000000000000000000000000000000000000000000000000000000000000000000000000000000000000000000000000000
310
00000000000000000000000000000000000000000000000000000000000000000000000000000000000000000000000000000000000000000000000000000000000000000000000000000000000000000000000000000000000000000000000000000000000000000000000000000000000000000000000000000000000000
310
0000000000000000000000000000000000000000000000000000000000000000000000000000000000000000000000000000000000000000
102
{BLKREFS
331
18E
102
}
1001
ACAD
1000
DesignCenter Data
1002
{
1070
     1
1070
     4
1002
}
  0
ENDTAB
  0
ENDSEC
  0
SECTION
  2
BLOCKS
  0
BLOCK
  5
20
330
1F
100
AcDbEntity
  8
0
100
AcDbBlockBegin
  2
*Model_Space
 70
     0
 10
0.0
 20
0.0
 30
0.0
  3
*Model_Space
  1

  0
ENDBLK
  5
21
330
1F
100
AcDbEntity
  8
0
100
AcDbBlockEnd
  0
BLOCK
  5
1C
330
1B
100
AcDbEntity
 67
     1
  8
0
100
AcDbBlockBegin
  2
*Paper_Space
 70
     0
 10
0.0
 20
0.0
 30
0.0
  3
*Paper_Space
  1

  0
ENDBLK
  5
1D
330
1B
100
AcDbEntity
 67
     1
  8
0
100
AcDbBlockEnd
  0
BLOCK
  5
12A
330
129
100
AcDbEntity
  8
0
100
AcDbBlockBegin
  2
au14d
 70
     0
 10
0.0
 20
0.0
 30
0.0
  3
au14d
  1

  0
LINE
  5
12C
330
129
100
AcDbEntity
  8
0
 62
     7
100
AcDbLine
 10
721.3643189624726
 20
-27.9459260518143
 30
0.0
 11
569.2912976179614
 21
-195.5964574585487
 31
0.0
  0
LINE
  5
12D
330
129
100
AcDbEntity
  8
0
 62
     7
100
AcDbLine
 10
712.7035017155649
 20
-25.11034534656761
 30
0.0
 11
582.0118017320274
 21
-169.1893723756439
 31
0.0
  0
LINE
  5
12E
330
129
100
AcDbEntity
  8
0
 62
     7
100
AcDbLine
 10
-5.25
 20
12.5
 30
0.0
 11
15.13794479972784
 21
12.5
 31
0.0
  0
LINE
  5
12F
330
129
100
AcDbEntity
  8
0
 62
     7
100
AcDbLine
 10
-6.25
 20
21.49999999999999
 30
0.0
 11
17.75238928319595
 21
21.49999999999999
 31
0.0
  0
ARC
  5
130
330
129
100
AcDbEntity
  8
0
 62
     7
100
AcDbCircle
 10
-6.25
 20
10.5
 30
0.0
 40
11.0
100
AcDbArc
 50
90.0
 51
180.0
  0
ARC
  5
131
330
129
100
AcDbEntity
  8
0
 62
     7
100
AcDbCircle
 10
5.119999999998981
 20
-8.369999999998981
 30
0.0
 40
2.129999999999999
100
AcDbArc
 50
270.0
 51
48.0000000000117
  0
ARC
  5
132
330
129
100
AcDbEntity
  8
0
 62
     7
100
AcDbCircle
 10
0.349715906795609
 20
9.5
 30
0.0
 40
20.0
100
AcDbArc
 50
220.5383065500989
 51
270.0
  0
ARC
  5
133
330
129
100
AcDbEntity
  8
0
 62
     7
100
AcDbCircle
 10
-5.25
 20
9.5
 30
0.0
 40
3.0
100
AcDbArc
 50
90.0
 51
180.0
  0
LINE
  5
134
330
129
100
AcDbEntity
  8
0
 62
     7
100
AcDbLine
 10
6.545248191541759
 20
-6.787101521733347
 30
0.0
 11
-7.257391819079202
 21
5.64085136581707
 31
0.0
  0
LINE
  5
135
330
129
100
AcDbEntity
  8
0
 62
     7
100
AcDbLine
 10
-8.25
 20
7.870285842249359
 30
0.0
 11
-8.25
 21
9.5
 31
0.0
  0
ARC
  5
136
330
129
100
AcDbEntity
  8
0
 62
     7
100
AcDbCircle
 10
-5.25
 20
7.870285842249359
 30
0.0
 40
3.0
100
AcDbArc
 50
180.0
 51
227.9999999999643
  0
ARC
  5
137
330
129
100
AcDbEntity
  8
0
 62
     7
100
AcDbCircle
 10
-7.25
 20
3.000437081160271
 30
0.0
 40
10.0
100
AcDbArc
 50
180.0
 51
220.5383065500918
  0
LINE
  5
138
330
129
100
AcDbEntity
  8
0
 62
     7
100
AcDbLine
 10
-17.25
 20
3.000437081160328
 30
0.0
 11
-17.25
 21
10.50000000000005
 31
0.0
  0
LINE
  5
139
330
129
100
AcDbEntity
  8
0
 62
     7
100
AcDbLine
 10
0.349715906795609
 20
-10.5
 30
0.0
 11
5.119999999998981
 21
-10.5
 31
0.0
  0
LINE
  5
13A
330
129
100
AcDbEntity
  8
1
  6
CENTER
 62
     4
 48
30.0
100
AcDbLine
 10
0.0
 20
-5.0
 30
0.0
 11
0.0
 21
5.0
 31
0.0
  0
LINE
  5
13B
330
129
100
AcDbEntity
  8
1
  6
CENTER
 62
     4
 48
30.0
100
AcDbLine
 10
-5.0
 20
0.0
 30
0.0
 11
5.0
 21
0.0
 31
0.0
  0
ARC
  5
13C
330
129
100
AcDbEntity
  8
0
 62
     7
100
AcDbCircle
 10
17.75238928319595
 20
10.5
 30
0.0
 40
11.0
100
AcDbArc
 50
5.71100000000638
 51
90.0
  0
LINE
  5
13D
330
129
100
AcDbEntity
  8
0
 62
     7
100
AcDbLine
 10
550.7743049667988
 20
-203.7999999999993
 30
0.0
 11
199.2256950331975
 21
-203.7999999999992
 31
0.0
  0
LINE
  5
13E
330
129
100
AcDbEntity
  8
0
 62
     7
100
AcDbLine
 10
526.4608237785433
 20
-193.7999999999992
 30
0.0
 11
223.5391762214567
 21
-193.7999999999992
 31
0.0
  0
LINE
  5
13F
330
129
100
AcDbEntity
  8
0
 62
     7
100
AcDbLine
 10
28.6356810375255
 20
-27.94592605181424
 30
0.0
 11
180.7087023820349
 21
-195.5964574585468
 31
0.0
  0
ARC
  5
140
330
129
100
AcDbEntity
  8
0
 62
     7
100
AcDbCircle
 10
223.5391762214567
 20
-118.7999999999992
 30
0.0
 40
75.0
100
AcDbArc
 50
222.2106516762287
 51
270.0
  0
ARC
  5
141
330
129
100
AcDbEntity
  8
0
 62
     7
100
AcDbCircle
 10
199.2256950331975
 20
-178.7999999999992
 30
0.0
 40
25.0
100
AcDbArc
 50
222.2106516762275
 51
270.0
  0
LINE
  5
142
330
129
100
AcDbEntity
  8
0
 62
     7
100
AcDbLine
 10
37.29649828443507
 20
-25.11034534656755
 30
0.0
 11
167.9881982679726
 21
-169.1893723756438
 31
0.0
  0
LINE
  5
143
330
129
100
AcDbEntity
  8
0
 62
     7
100
AcDbLine
 10
22.27676159868497
 20
-13.63723821494932
 30
0.0
 11
20.11312721772992
 21
7.997553924336898
 31
0.0
  0
ARC
  5
144
330
129
100
AcDbEntity
  8
0
 62
     7
100
AcDbCircle
 10
55.81349093559402
 20
-8.313887888018143
 30
0.0
 40
25.0
100
AcDbArc
 50
185.7110000000047
 51
222.2106516762345
  0
ARC
  5
145
330
129
100
AcDbEntity
  8
0
 62
     7
100
AcDbCircle
 10
47.15267368868626
 20
-11.14946859326482
 30
0.0
 40
25.0
100
AcDbArc
 50
185.7109999999998
 51
222.2106516762333
  0
LINE
  5
146
330
129
100
AcDbEntity
  8
0
 62
     7
100
AcDbLine
 10
30.93757884559454
 20
-10.80165750970445
 30
0.0
 11
28.69779060279688
 21
11.59461863354226
 31
0.0
  0
ARC
  5
147
330
129
100
AcDbEntity
  8
0
 62
     7
100
AcDbCircle
 10
15.13794479972784
 20
7.5
 30
0.0
 40
5.0
100
AcDbArc
 50
5.710999999998278
 51
90.0
  0
ARC
  5
148
330
129
100
AcDbEntity
  8
0
 62
     7
100
AcDbCircle
 10
526.4608237785433
 20
-118.7999999999992
 30
0.0
 40
75.0
100
AcDbArc
 50
270.0
 51
317.7893483237712
  0
ARC
  5
149
330
129
100
AcDbEntity
  8
0
 62
     7
100
AcDbCircle
 10
550.7743049667988
 20
-178.7999999999992
 30
0.0
 40
25.0
100
AcDbArc
 50
270.0
 51
317.7893483237712
  0
LINE
  5
14A
330
129
100
AcDbEntity
  8
0
 62
     7
100
AcDbLine
 10
949.2256950331993
 20
203.7999999999992
 30
0.0
 11
1300.774304966801
 21
203.7999999999992
 31
0.0
  0
LINE
  5
14B
330
129
100
AcDbEntity
  8
0
 62
     7
100
AcDbLine
 10
973.5391762214558
 20
193.7999999999992
 30
0.0
 11
1276.460823778543
 21
193.7999999999992
 31
0.0
  0
ARC
  5
14C
330
129
100
AcDbEntity
  8
0
 62
     7
100
AcDbCircle
 10
797.1526736886872
 20
11.14946859326477
 30
0.0
 40
25.0
100
AcDbArc
 50
137.7893483237678
 51
174.2889999999984
  0
ARC
  5
14D
330
129
100
AcDbEntity
  8
0
 62
     7
100
AcDbCircle
 10
805.8134909355958
 20
8.313887888019905
 30
0.0
 40
25.0
100
AcDbArc
 50
137.7893483237712
 51
174.2889999999984
  0
ARC
  5
14E
330
129
100
AcDbEntity
  8
0
 62
     7
100
AcDbCircle
 10
756.2499999999982
 20
10.49999999999994
 30
0.0
 40
11.0
100
AcDbArc
 50
0.0
 51
90.0
  0
ARC
  5
14F
330
129
100
AcDbEntity
  8
0
 62
     7
100
AcDbCircle
 10
732.2476107168004
 20
10.49999999999994
 30
0.0
 40
11.0
100
AcDbArc
 50
90.0
 51
174.2889999999936
  0
ARC
  5
150
330
129
100
AcDbEntity
  8
0
 62
     7
100
AcDbCircle
 10
750.3497159067974
 20
-9.500000000000056
 30
0.0
 40
20.0
100
AcDbArc
 50
90.0
 51
139.4616934499035
  0
ARC
  5
151
330
129
100
AcDbEntity
  8
0
 62
     7
100
AcDbCircle
 10
743.75
 20
-10.50000000000005
 30
0.0
 40
11.0
100
AcDbArc
 50
180.0
 51
270.0
  0
LINE
  5
152
330
129
100
AcDbEntity
  8
0
 62
     7
100
AcDbLine
 10
755.2499999999981
 20
12.49999999999994
 30
0.0
 11
734.8620552002685
 21
12.49999999999994
 31
0.0
  0
LINE
  5
153
330
129
100
AcDbEntity
  8
0
 62
     7
100
AcDbLine
 10
727.7232384013114
 20
-13.63723821494937
 30
0.0
 11
729.8868727822682
 21
7.997553924336841
 31
0.0
  0
ARC
  5
154
330
129
100
AcDbEntity
  8
0
 62
     7
100
AcDbCircle
 10
694.1865090644023
 20
-8.313887888020019
 30
0.0
 40
25.0
100
AcDbArc
 50
317.7893483237724
 51
354.2890000000001
  0
ARC
  5
155
330
129
100
AcDbEntity
  8
0
 62
     7
100
AcDbCircle
 10
702.8473263113119
 20
-11.14946859326488
 30
0.0
 40
25.0
100
AcDbArc
 50
317.7893483237665
 51
354.2889999999985
  0
ARC
  5
156
330
129
100
AcDbEntity
  8
0
 62
     7
100
AcDbCircle
 10
742.75
 20
-3.000437081160328
 30
0.0
 40
10.0
100
AcDbArc
 50
139.4616934499069
 51
180.0
  0
LINE
  5
157
330
129
100
AcDbEntity
  8
0
 62
     7
100
AcDbLine
 10
732.75
 20
-3.000437081160328
 30
0.0
 11
732.75
 21
-10.50000000000005
 31
0.0
  0
ARC
  5
158
330
129
100
AcDbEntity
  8
0
 62
     7
100
AcDbCircle
 10
734.8620552002685
 20
7.499999999999943
 30
0.0
 40
5.0
100
AcDbArc
 50
90.0
 51
174.289
  0
LINE
  5
159
330
129
100
AcDbEntity
  8
0
 62
     7
100
AcDbLine
 10
719.0624211544036
 20
-10.80165750970451
 30
0.0
 11
721.3022093971995
 21
11.59461863354221
 31
0.0
  0
ARC
  5
15A
330
129
100
AcDbEntity
  8
0
 62
     7
100
AcDbCircle
 10
767.7523892831986
 20
-10.50000000000005
 30
0.0
 40
11.0
100
AcDbArc
 50
270.0
 51
354.2889999999936
  0
ARC
  5
15B
330
129
100
AcDbEntity
  8
0
 62
     7
100
AcDbCircle
 10
765.1379447997296
 20
-7.500000000000056
 30
0.0
 40
5.0
100
AcDbArc
 50
270.0
 51
354.2890000000001
  0
ARC
  5
15C
330
129
100
AcDbEntity
  8
0
 62
     7
100
AcDbCircle
 10
744.7499999999999
 20
-9.500000000000056
 30
0.0
 40
3.0
100
AcDbArc
 50
180.0
 51
270.0
  0
ARC
  5
15D
330
129
100
AcDbEntity
  8
0
 62
     7
100
AcDbCircle
 10
744.8799999999992
 20
-8.369999999999038
 30
0.0
 40
2.129999999999999
100
AcDbArc
 50
132.0000000000264
 51
270.0
  0
ARC
  5
15E
330
129
100
AcDbEntity
  8
0
 62
     7
100
AcDbCircle
 10
749.6502840932008
 20
9.499999999999943
 30
0.0
 40
20.0
100
AcDbArc
 50
270.0
 51
319.4616934499035
  0
LINE
  5
15F
330
129
100
AcDbEntity
  8
0
 62
     7
100
AcDbLine
 10
744.7499999999999
 20
-12.50000000000005
 30
0.0
 11
765.1379447997296
 21
-12.50000000000005
 31
0.0
  0
LINE
  5
160
330
129
100
AcDbEntity
  8
0
 62
     7
100
AcDbLine
 10
743.75
 20
-21.50000000000005
 30
0.0
 11
767.7523892831986
 21
-21.50000000000005
 31
0.0
  0
LINE
  5
161
330
129
100
AcDbEntity
  8
0
 62
     7
100
AcDbLine
 10
756.5452481915436
 20
6.787101521733291
 30
0.0
 11
742.7426081809226
 21
-5.640851365817127
 31
0.0
  0
LINE
  5
162
330
129
100
AcDbEntity
  8
0
 62
     7
100
AcDbLine
 10
750.3497159067974
 20
10.49999999999994
 30
0.0
 11
755.1199999999989
 21
10.49999999999994
 31
0.0
  0
LINE
  5
163
330
129
100
AcDbEntity
  8
0
 62
     7
100
AcDbLine
 10
743.4547518084546
 20
-6.787101521733404
 30
0.0
 11
757.2573918190755
 21
5.640851365817013
 31
0.0
  0
LINE
  5
164
330
129
100
AcDbEntity
  8
1
  6
CENTER
 62
     4
 48
30.0
100
AcDbLine
 10
755.0
 20
0.0
 30
0.0
 11
745.0
 21
0.0
 31
0.0
  0
LINE
  5
165
330
129
100
AcDbEntity
  8
0
 62
     7
100
AcDbLine
 10
741.75
 20
-7.870285842249415
 30
0.0
 11
741.75
 21
-9.500000000000056
 31
0.0
  0
ARC
  5
166
330
129
100
AcDbEntity
  8
0
 62
     7
100
AcDbCircle
 10
744.7499999999999
 20
-7.870285842249415
 30
0.0
 40
3.0
100
AcDbArc
 50
132.0000000000091
 51
180.0
  0
LINE
  5
167
330
129
100
AcDbEntity
  8
0
 62
     7
100
AcDbLine
 10
749.6502840932008
 20
-10.50000000000005
 30
0.0
 11
744.8799999999992
 21
-10.50000000000005
 31
0.0
  0
LINE
  5
168
330
129
100
AcDbEntity
  8
1
  6
CENTER
 62
     4
 48
30.0
100
AcDbLine
 10
750.0
 20
-5.0
 30
0.0
 11
750.0
 21
5.0
 31
0.0
  0
LINE
  5
169
330
129
100
AcDbEntity
  8
0
 62
     7
100
AcDbLine
 10
772.2767615986867
 20
13.63723821494926
 30
0.0
 11
770.1131272177299
 21
-7.997553924336955
 31
0.0
  0
ARC
  5
16A
330
129
100
AcDbEntity
  8
0
 62
     7
100
AcDbCircle
 10
755.1199999999989
 20
8.369999999998924
 30
0.0
 40
2.129999999999999
100
AcDbArc
 50
312.0000000000264
 51
90.0
  0
ARC
  5
16B
330
129
100
AcDbEntity
  8
0
 62
     7
100
AcDbCircle
 10
755.2499999999981
 20
9.499999999999943
 30
0.0
 40
3.0
100
AcDbArc
 50
0.0
 51
90.0
  0
LINE
  5
16C
330
129
100
AcDbEntity
  8
0
 62
     7
100
AcDbLine
 10
758.2499999999981
 20
7.870285842249302
 30
0.0
 11
758.2499999999981
 21
9.499999999999943
 31
0.0
  0
ARC
  5
16D
330
129
100
AcDbEntity
  8
0
 62
     7
100
AcDbCircle
 10
755.2499999999981
 20
7.870285842249302
 30
0.0
 40
3.0
100
AcDbArc
 50
312.0000000000091
 51
0.0
  0
ARC
  5
16E
330
129
100
AcDbEntity
  8
0
 62
     7
100
AcDbCircle
 10
757.2499999999982
 20
3.000437081160214
 30
0.0
 40
10.0
100
AcDbArc
 50
319.4616934499068
 51
0.0
  0
LINE
  5
16F
330
129
100
AcDbEntity
  8
0
 62
     7
100
AcDbLine
 10
767.2499999999981
 20
3.000437081160214
 30
0.0
 11
767.2499999999981
 21
10.49999999999994
 31
0.0
  0
LINE
  5
170
330
129
100
AcDbEntity
  8
0
 62
     7
100
AcDbLine
 10
780.9375788455954
 20
10.80165750970439
 30
0.0
 11
778.6977906027987
 21
-11.59461863354232
 31
0.0
  0
LINE
  5
171
330
129
100
AcDbEntity
  8
0
 62
     7
100
AcDbLine
 10
778.6356810375255
 20
27.94592605181418
 30
0.0
 11
930.7087023820377
 21
195.5964574585486
 31
0.0
  0
LINE
  5
172
330
129
100
AcDbEntity
  8
0
 62
     7
100
AcDbLine
 10
787.2964982844341
 20
25.11034534656749
 30
0.0
 11
917.9881982679717
 21
169.1893723756438
 31
0.0
  0
LINE
  5
173
330
129
100
AcDbEntity
  8
0
 62
     7
100
AcDbLine
 10
756.2499999999982
 20
21.49999999999994
 30
0.0
 11
732.2476107168004
 21
21.49999999999994
 31
0.0
  0
ARC
  5
174
330
129
100
AcDbEntity
  8
0
 62
     7
100
AcDbCircle
 10
973.5391762214558
 20
118.7999999999992
 30
0.0
 40
75.0
100
AcDbArc
 50
90.0
 51
137.7893483237712
  0
ARC
  5
175
330
129
100
AcDbEntity
  8
0
 62
     7
100
AcDbCircle
 10
949.2256950331993
 20
178.7999999999992
 30
0.0
 40
25.0
100
AcDbArc
 50
90.0
 51
137.7893483237678
  0
ARC
  5
176
330
129
100
AcDbEntity
  8
0
 62
     7
100
AcDbCircle
 10
1452.847326311312
 20
11.14946859326477
 30
0.0
 40
25.0
100
AcDbArc
 50
5.711000000001518
 51
42.21065167623216
  0
ARC
  5
177
330
129
100
AcDbEntity
  8
0
 62
     7
100
AcDbCircle
 10
1444.186509064404
 20
8.313887888018086
 30
0.0
 40
25.0
100
AcDbArc
 50
5.711000000004759
 51
42.21065167623336
  0
LINE
  5
178
330
129
100
AcDbEntity
  8
0
 62
     7
100
AcDbLine
 10
1505.25
 20
-12.50000000000005
 30
0.0
 11
1484.86205520027
 21
-12.50000000000005
 31
0.0
  0
LINE
  5
179
330
129
100
AcDbEntity
  8
0
 62
     7
100
AcDbLine
 10
1493.454751808456
 20
6.787101521733291
 30
0.0
 11
1507.257391819077
 21
-5.640851365817127
 31
0.0
  0
LINE
  5
17A
330
129
100
AcDbEntity
  8
0
 62
     7
100
AcDbLine
 10
1499.650284093202
 20
10.49999999999994
 30
0.0
 11
1494.880000000001
 21
10.49999999999994
 31
0.0
  0
LINE
  5
17B
330
129
100
AcDbEntity
  8
0
 62
     7
100
AcDbLine
 10
1506.25
 20
-21.50000000000005
 30
0.0
 11
1482.247610716802
 21
-21.50000000000005
 31
0.0
  0
LINE
  5
17C
330
129
100
AcDbEntity
  8
1
  6
CENTER
 62
     4
 48
30.0
100
AcDbLine
 10
1505.0
 20
0.0
 30
0.0
 11
1495.0
 21
0.0
 31
0.0
  0
ARC
  5
17D
330
129
100
AcDbEntity
  8
0
 62
     7
100
AcDbCircle
 10
1484.86205520027
 20
-7.500000000000056
 30
0.0
 40
5.0
100
AcDbArc
 50
185.7109999999998
 51
270.0
  0
LINE
  5
17E
330
129
100
AcDbEntity
  8
0
 62
     7
100
AcDbLine
 10
1469.062421154403
 20
10.80165750970439
 30
0.0
 11
1471.302209397202
 21
-11.59461863354232
 31
0.0
  0
ARC
  5
17F
330
129
100
AcDbEntity
  8
0
 62
     7
100
AcDbCircle
 10
1482.247610716802
 20
-10.50000000000005
 30
0.0
 40
11.0
100
AcDbArc
 50
185.7110000000063
 51
270.0
  0
LINE
  5
180
330
129
100
AcDbEntity
  8
0
 62
     7
100
AcDbLine
 10
1477.723238401313
 20
13.63723821494926
 30
0.0
 11
1479.88687278227
 21
-7.997553924336955
 31
0.0
  0
ARC
  5
181
330
129
100
AcDbEntity
  8
0
 62
     7
100
AcDbCircle
 10
1494.880000000001
 20
8.369999999998924
 30
0.0
 40
2.129999999999999
100
AcDbArc
 50
90.0
 51
227.9999999999735
  0
ARC
  5
182
330
129
100
AcDbEntity
  8
0
 62
     7
100
AcDbCircle
 10
1505.25
 20
-9.500000000000056
 30
0.0
 40
3.0
100
AcDbArc
 50
270.0
 51
0.0
  0
ARC
  5
183
330
129
100
AcDbEntity
  8
0
 62
     7
100
AcDbCircle
 10
1506.25
 20
-10.50000000000005
 30
0.0
 40
11.0
100
AcDbArc
 50
270.0
 51
0.0
  0
ARC
  5
184
330
129
100
AcDbEntity
  8
0
 62
     7
100
AcDbCircle
 10
1507.249999999999
 20
-3.000437081160328
 30
0.0
 40
10.0
100
AcDbArc
 50
0.0
 51
40.53830655009645
  0
LINE
  5
185
330
129
100
AcDbEntity
  8
0
 62
     7
100
AcDbLine
 10
1508.25
 20
-7.870285842249415
 30
0.0
 11
1508.25
 21
-9.500000000000056
 31
0.0
  0
ARC
  5
186
330
129
100
AcDbEntity
  8
0
 62
     7
100
AcDbCircle
 10
1505.25
 20
-7.870285842249415
 30
0.0
 40
3.0
100
AcDbArc
 50
0.0
 51
47.99999999999089
  0
ARC
  5
187
330
129
100
AcDbEntity
  8
0
 62
     7
100
AcDbCircle
 10
1499.650284093202
 20
-9.500000000000056
 30
0.0
 40
20.0
100
AcDbArc
 50
40.53830655009769
 51
90.0
  0
LINE
  5
188
330
129
100
AcDbEntity
  8
1
  6
CENTER
 62
     4
 48
30.0
100
AcDbLine
 10
1500.0
 20
5.0
 30
0.0
 11
1500.0
 21
-5.0
 31
0.0
  0
LINE
  5
189
330
129
100
AcDbEntity
  8
0
 62
     7
100
AcDbLine
 10
1517.249999999999
 20
-3.000437081160328
 30
0.0
 11
1517.249999999999
 21
-10.50000000000005
 31
0.0
  0
LINE
  5
18A
330
129
100
AcDbEntity
  8
0
 62
     7
100
AcDbLine
 10
1471.364318962474
 20
27.94592605181418
 30
0.0
 11
1319.291297617963
 21
195.5964574585468
 31
0.0
  0
LINE
  5
18B
330
129
100
AcDbEntity
  8
0
 62
     7
100
AcDbLine
 10
1462.703501715564
 20
25.11034534656749
 30
0.0
 11
1332.011801732027
 21
169.1893723756438
 31
0.0
  0
ARC
  5
18C
330
129
100
AcDbEntity
  8
0
 62
     7
100
AcDbCircle
 10
1300.774304966801
 20
178.7999999999992
 30
0.0
 40
25.0
100
AcDbArc
 50
42.21065167622876
 51
90.0
  0
ARC
  5
18D
330
129
100
AcDbEntity
  8
0
 62
     7
100
AcDbCircle
 10
1276.460823778543
 20
118.7999999999992
 30
0.0
 40
75.0
100
AcDbArc
 50
42.21065167622876
 51
90.0
  0
ENDBLK
  5
12B
330
129
100
AcDbEntity
  8
0
100
AcDbBlockEnd
  0
ENDSEC
  0
SECTION
  2
ENTITIES
  0
INSERT
  5
18E
330
1F
100
AcDbEntity
  8
0
100
AcDbBlockReference
  2
au14d
 10
336.0317855865478
 20
235.7716476305854
 30
0.0
  0
VIEWPORT
  5
6A
330
1B
100
AcDbEntity
 67
     1
  8
0
100
AcDbViewport
 10
144.2296600341796
 20
98.97533035278321
 30
0.0
 40
348.3547377345459
 41
222.1517806396484
 68
     1
 69
     1
 12
144.2296600341796
 22
98.97533035278321
 13
0.0
 23
0.0
 14
10.0
 24
10.0
 15
10.0
 25
10.0
 16
0.0
 26
0.0
 36
1.0
 17
0.0
 27
0.0
 37
0.0
 42
50.0
 43
0.0
 44
0.0
 45
222.1517806396484
 50
0.0
 51
0.0
 72
   100
 90
    32800
  1

281
     0
 71
     1
 74
     0
110
0.0
120
0.0
130
0.0
111
1.0
121
0.0
131
0.0
112
0.0
122
1.0
132
0.0
 79
     0
146
0.0
  0
VIEWPORT
  5
6C
330
1B
100
AcDbEntity
 67
     1
  8
0
100
AcDbViewport
 10
144.2296578884124
 20
98.97533607482911
 30
0.0
 40
230.7674526214599
 41
158.3605377197265
 68
     2
 69
     2
 12
471.9925402099685
 22
207.0118385025535
 13
0.0
 23
0.0
 14
10.0
 24
10.0
 15
10.0
 25
10.0
 16
0.0
 26
0.0
 36
1.0
 17
0.0
 27
0.0
 37
0.0
 42
50.0
 43
0.0
 44
0.0
 45
537.2024815614429
 50
0.0
 51
0.0
 72
   100
 90
    32864
  1

281
     0
 71
     1
 74
     0
110
330.2484756222961
120
239.5669321729576
130
0.0
111
1.0
121
0.0
131
0.0
112
0.0
122
1.0
132
0.0
 79
     0
146
0.0
  0
ENDSEC
  0
SECTION
  2
OBJECTS
  0
DICTIONARY
  5
C
330
0
100
AcDbDictionary
281
     1
  3
ACAD_GROUP
350
D
  3
ACAD_LAYOUT
350
1A
  3
ACAD_MLINESTYLE
350
17
  3
ACAD_PLOTSETTINGS
350
19
  3
ACAD_PLOTSTYLENAME
350
E
  3
AcDbVariableDictionary
350
44
  0
DICTIONARY
  5
2B
330
2
100
AcDbDictionary
280
     1
281
     1
  3
ACAD_LAYERFILTERS
360
2C
  0
DICTIONARY
  5
D
102
{ACAD_REACTORS
330
C
102
}
330
C
100
AcDbDictionary
281
     1
  0
DICTIONARY
  5
1A
102
{ACAD_REACTORS
330
C
102
}
330
C
100
AcDbDictionary
281
     1
  3
Layout1
350
1E
  3
Model
350
22
  0
DICTIONARY
  5
17
102
{ACAD_REACTORS
330
C
102
}
330
C
100
AcDbDictionary
281
     1
  3
Standard
350
18
  0
DICTIONARY
  5
19
102
{ACAD_REACTORS
330
C
102
}
330
C
100
AcDbDictionary
281
     1
  0
ACDBDICTIONARYWDFLT
  5
E
102
{ACAD_REACTORS
330
C
102
}
330
C
100
AcDbDictionary
281
     1
  3
Normal
350
F
100
AcDbDictionaryWithDefault
340
F
  0
DICTIONARY
  5
44
102
{ACAD_REACTORS
330
C
102
}
330
C
100
AcDbDictionary
281
     1
  3
DIMASSOC
350
46
  3
HIDETEXT
350
45
  0
DICTIONARY
  5
2C
102
{ACAD_REACTORS
330
2B
102
}
330
2B
100
AcDbDictionary
280
     1
281
     1
  3
GEO
360
2D
  3
RAK
360
2E
  3
RAK&GEO
360
2F
  0
LAYOUT
  5
1E
102
{ACAD_REACTORS
330
1A
102
}
330
1A
100
AcDbPlotSettings
  1

  2
\\AOBSRV1\FIN9
  4
A4
  6

 40
6.011333465576171
 41
4.233341693878173
 42
6.011322021484375
 43
4.23333740234375
 44
209.9733276367187
 45
296.9259948730469
 46
0.0
 47
0.0
 48
0.0
 49
0.0
140
0.0
141
0.0
142
1.0
143
1.0
 70
   688
 72
     1
 73
     1
 74
     5
  7

 75
    16
147
1.0
148
0.0
149
0.0
100
AcDbLayout
  1
Layout1
 70
     1
 71
     1
 10
-4.23333740234375
 20
-6.011333465576171
 11
292.6926574707031
 21
203.9619941711425
 12
0.0
 22
0.0
 32
0.0
 14
28.8459315776825
 24
19.79506721496582
 34
0.0
 15
259.6133841991424
 25
178.1556049346923
 35
0.0
146
0.0
 13
0.0
 23
0.0
 33
0.0
 16
1.0
 26
0.0
 36
0.0
 17
0.0
 27
1.0
 37
0.0
 76
     0
330
1B
331
6A
  0
LAYOUT
  5
22
102
{ACAD_REACTORS
330
1A
102
}
330
1A
100
AcDbPlotSettings
  1

  2
\\AOBSRV1\FIN9
  4

  6

 40
0.0
 41
0.0
 42
0.0
 43
0.0
 44
0.0
 45
0.0
 46
0.0
 47
0.0
 48
0.0
 49
0.0
140
0.0
141
0.0
142
1.0
143
1.0
 70
  1712
 72
     0
 73
     0
 74
     0
  7

 75
     0
147
1.0
148
0.0
149
0.0
100
AcDbLayout
  1
Model
 70
     1
 71
     0
 10
0.0
 20
0.0
 11
12.0
 21
9.0
 12
0.0
 22
0.0
 32
0.0
 14
0.0
 24
0.0
 34
0.0
 15
0.0
 25
0.0
 35
0.0
146
0.0
 13
0.0
 23
0.0
 33
0.0
 16
1.0
 26
0.0
 36
0.0
 17
0.0
 27
1.0
 37
0.0
 76
     0
330
1F
  0
MLINESTYLE
  5
18
102
{ACAD_REACTORS
330
17
102
}
330
17
100
AcDbMlineStyle
  2
STANDARD
 70
     0
  3

 62
   256
 51
90.0
 52
90.0
 71
     2
 49
0.5
 62
   256
  6
BYLAYER
 49
-0.5
 62
   256
  6
BYLAYER
  0
ACDBPLACEHOLDER
  5
F
102
{ACAD_REACTORS
330
E
102
}
330
E
  0
DICTIONARYVAR
  5
46
102
{ACAD_REACTORS
330
44
102
}
330
44
100
DictionaryVariables
280
     0
  1
2
  0
DICTIONARYVAR
  5
45
102
{ACAD_REACTORS
330
44
102
}
330
44
100
DictionaryVariables
280
     0
  1
1
  0
XRECORD
  5
2D
102
{ACAD_REACTORS
330
2C
102
}
330
2C
100
AcDbXrecord
280
     1
  1
GEO
  1
GEO-*
  1
*
  1
*
 70
     0
  1
*
  1
*
  0
XRECORD
  5
2E
102
{ACAD_REACTORS
330
2C
102
}
330
2C
100
AcDbXrecord
280
     1
  1
RAK
  1
RAK-*
  1
*
  1
*
 70
     0
  1
*
  1
*
  0
XRECORD
  5
2F
102
{ACAD_REACTORS
330
2C
102
}
330
2C
100
AcDbXrecord
280
     1
  1
RAK&GEO
  1
RAK-*,GEO-*
  1
*
  1
*
 70
     0
  1
*
  1
*
  0
ENDSEC
  0
EOF
