  0
SECTION
  2
HEADER
  9
$ACADVER
  1
AC1015
  9
$ACADMAINTVER
 70
    14
  9
$DWGCODEPAGE
  3
ANSI_1252
  9
$INSBASE
 10
0.0
 20
0.0
 30
0.0
  9
$EXTMIN
 10
549.1083554076258
 20
-1447.59354948269
 30
-0.0000000003672348
  9
$EXTMAX
 10
2099.108355407625
 20
-1034.994403604438
 30
-0.0000000003672348
  9
$LIMMIN
 10
0.0
 20
0.0
  9
$LIMMAX
 10
420.0
 20
297.0
  9
$ORTHOMODE
 70
     0
  9
$REGENMODE
 70
     1
  9
$FILLMODE
 70
     1
  9
$QTEXTMODE
 70
     0
  9
$MIRRTEXT
 70
     1
  9
$LTSCALE
 40
1.0
  9
$ATTMODE
 70
     1
  9
$TEXTSIZE
 40
2.5
  9
$TRACEWID
 40
1.0
  9
$TEXTSTYLE
  7
Standard
  9
$CLAYER
  8
PAZ5560
  9
$CELTYPE
  6
ByLayer
  9
$CECOLOR
 62
   256
  9
$CELTSCALE
 40
1.0
  9
$DISPSILH
 70
     0
  9
$DIMSCALE
 40
1.0
  9
$DIMASZ
 40
2.5
  9
$DIMEXO
 40
0.625
  9
$DIMDLI
 40
3.75
  9
$DIMRND
 40
0.0
  9
$DIMDLE
 40
0.0
  9
$DIMEXE
 40
1.25
  9
$DIMTP
 40
0.0
  9
$DIMTM
 40
0.0
  9
$DIMTXT
 40
2.5
  9
$DIMCEN
 40
2.5
  9
$DIMTSZ
 40
0.0
  9
$DIMTOL
 70
     0
  9
$DIMLIM
 70
     0
  9
$DIMTIH
 70
     0
  9
$DIMTOH
 70
     0
  9
$DIMSE1
 70
     0
  9
$DIMSE2
 70
     0
  9
$DIMTAD
 70
     1
  9
$DIMZIN
 70
     8
  9
$DIMBLK
  1

  9
$DIMASO
 70
     1
  9
$DIMSHO
 70
     1
  9
$DIMPOST
  1

  9
$DIMAPOST
  1

  9
$DIMALT
 70
     0
  9
$DIMALTD
 70
     3
  9
$DIMALTF
 40
0.03937007874016
  9
$DIMLFAC
 40
1.0
  9
$DIMTOFL
 70
     1
  9
$DIMTVP
 40
0.0
  9
$DIMTIX
 70
     0
  9
$DIMSOXD
 70
     0
  9
$DIMSAH
 70
     0
  9
$DIMBLK1
  1

  9
$DIMBLK2
  1

  9
$DIMSTYLE
  2
ISO-25
  9
$DIMCLRD
 70
     0
  9
$DIMCLRE
 70
     0
  9
$DIMCLRT
 70
     0
  9
$DIMTFAC
 40
1.0
  9
$DIMGAP
 40
0.625
  9
$DIMJUST
 70
     0
  9
$DIMSD1
 70
     0
  9
$DIMSD2
 70
     0
  9
$DIMTOLJ
 70
     0
  9
$DIMTZIN
 70
     8
  9
$DIMALTZ
 70
     0
  9
$DIMALTTZ
 70
     0
  9
$DIMUPT
 70
     0
  9
$DIMDEC
 70
     2
  9
$DIMTDEC
 70
     2
  9
$DIMALTU
 70
     2
  9
$DIMALTTD
 70
     3
  9
$DIMTXSTY
  7
Standard
  9
$DIMAUNIT
 70
     0
  9
$DIMADEC
 70
     0
  9
$DIMALTRND
 40
0.0
  9
$DIMAZIN
 70
     0
  9
$DIMDSEP
 70
    44
  9
$DIMATFIT
 70
     3
  9
$DIMFRAC
 70
     0
  9
$DIMLDRBLK
  1

  9
$DIMLUNIT
 70
     2
  9
$DIMLWD
 70
    -2
  9
$DIMLWE
 70
    -2
  9
$DIMTMOVE
 70
     0
  9
$LUNITS
 70
     2
  9
$LUPREC
 70
     4
  9
$SKETCHINC
 40
1.0
  9
$FILLETRAD
 40
10.0
  9
$AUNITS
 70
     0
  9
$AUPREC
 70
     0
  9
$MENU
  1
.
  9
$ELEVATION
 40
0.0
  9
$PELEVATION
 40
0.0
  9
$THICKNESS
 40
0.0
  9
$LIMCHECK
 70
     0
  9
$CHAMFERA
 40
10.0
  9
$CHAMFERB
 40
10.0
  9
$CHAMFERC
 40
20.0
  9
$CHAMFERD
 40
0.0
  9
$SKPOLY
 70
     0
  9
$TDCREATE
 40
2452984.401453715
  9
$TDUCREATE
 40
2452984.359787048
  9
$TDUPDATE
 40
2452989.717548911
  9
$TDUUPDATE
 40
2452989.675882245
  9
$TDINDWG
 40
0.0374631019
  9
$TDUSRTIMER
 40
0.0374629167
  9
$USRTIMER
 70
     1
  9
$ANGBASE
 50
0.0
  9
$ANGDIR
 70
     0
  9
$PDMODE
 70
     0
  9
$PDSIZE
 40
0.0
  9
$PLINEWID
 40
0.0
  9
$SPLFRAME
 70
     0
  9
$SPLINETYPE
 70
     6
  9
$SPLINESEGS
 70
     8
  9
$HANDSEED
  5
CCF
  9
$SURFTAB1
 70
     6
  9
$SURFTAB2
 70
     6
  9
$SURFTYPE
 70
     6
  9
$SURFU
 70
     6
  9
$SURFV
 70
     6
  9
$UCSBASE
  2

  9
$UCSNAME
  2

  9
$UCSORG
 10
568.3583554076258
 20
-1421.343976543565
 30
-0.0000000003672348
  9
$UCSXDIR
 10
1.0
 20
0.0
 30
0.0
  9
$UCSYDIR
 10
0.0
 20
1.0
 30
0.0
  9
$UCSORTHOREF
  2

  9
$UCSORTHOVIEW
 70
     0
  9
$UCSORGTOP
 10
0.0
 20
0.0
 30
0.0
  9
$UCSORGBOTTOM
 10
0.0
 20
0.0
 30
0.0
  9
$UCSORGLEFT
 10
0.0
 20
0.0
 30
0.0
  9
$UCSORGRIGHT
 10
0.0
 20
0.0
 30
0.0
  9
$UCSORGFRONT
 10
0.0
 20
0.0
 30
0.0
  9
$UCSORGBACK
 10
0.0
 20
0.0
 30
0.0
  9
$PUCSBASE
  2

  9
$PUCSNAME
  2

  9
$PUCSORG
 10
0.0
 20
0.0
 30
0.0
  9
$PUCSXDIR
 10
1.0
 20
0.0
 30
0.0
  9
$PUCSYDIR
 10
0.0
 20
1.0
 30
0.0
  9
$PUCSORTHOREF
  2

  9
$PUCSORTHOVIEW
 70
     0
  9
$PUCSORGTOP
 10
0.0
 20
0.0
 30
0.0
  9
$PUCSORGBOTTOM
 10
0.0
 20
0.0
 30
0.0
  9
$PUCSORGLEFT
 10
0.0
 20
0.0
 30
0.0
  9
$PUCSORGRIGHT
 10
0.0
 20
0.0
 30
0.0
  9
$PUCSORGFRONT
 10
0.0
 20
0.0
 30
0.0
  9
$PUCSORGBACK
 10
0.0
 20
0.0
 30
0.0
  9
$USERI1
 70
     0
  9
$USERI2
 70
     0
  9
$USERI3
 70
     0
  9
$USERI4
 70
     0
  9
$USERI5
 70
     0
  9
$USERR1
 40
0.0
  9
$USERR2
 40
0.0
  9
$USERR3
 40
0.0
  9
$USERR4
 40
0.0
  9
$USERR5
 40
0.0
  9
$WORLDVIEW
 70
     1
  9
$SHADEDGE
 70
     3
  9
$SHADEDIF
 70
    70
  9
$TILEMODE
 70
     1
  9
$MAXACTVP
 70
    64
  9
$PINSBASE
 10
0.0
 20
0.0
 30
0.0
  9
$PLIMCHECK
 70
     0
  9
$PEXTMIN
 10
28.8459315776825
 20
19.79506721496582
 30
0.0
  9
$PEXTMAX
 10
259.6133841991424
 20
178.1556049346923
 30
0.0
  9
$PLIMMIN
 10
-4.23333740234375
 20
-6.011333465576171
  9
$PLIMMAX
 10
292.6926574707031
 20
203.9619941711425
  9
$UNITMODE
 70
     0
  9
$VISRETAIN
 70
     1
  9
$PLINEGEN
 70
     0
  9
$PSLTSCALE
 70
     1
  9
$TREEDEPTH
 70
  3020
  9
$CMLSTYLE
  2
Standard
  9
$CMLJUST
 70
     0
  9
$CMLSCALE
 40
20.0
  9
$PROXYGRAPHICS
 70
     1
  9
$MEASUREMENT
 70
     1
  9
$CELWEIGHT
370
    -1
  9
$ENDCAPS
280
     0
  9
$JOINSTYLE
280
     0
  9
$LWDISPLAY
290
     0
  9
$INSUNITS
 70
     4
  9
$HYPERLINKBASE
  1

  9
$STYLESHEET
  1

  9
$XEDIT
290
     1
  9
$CEPSNTYPE
380
     0
  9
$PSTYLEMODE
290
     1
  9
$FINGERPRINTGUID
  2
{1F0C9108-7A24-43FE-92C0-F61D6143634A}
  9
$VERSIONGUID
  2
{75C5E310-C6CB-4E7C-8375-218CFA95B473}
  9
$EXTNAMES
290
     1
  9
$PSVPSCALE
 40
0.0
  9
$OLESTARTUP
290
     0
  0
ENDSEC
  0
SECTION
  2
CLASSES
  0
CLASS
  1
ACDBDICTIONARYWDFLT
  2
AcDbDictionaryWithDefault
  3
AutoCAD 2000
 90
        0
280
     0
281
     0
  0
CLASS
  1
ACDBPLACEHOLDER
  2
AcDbPlaceHolder
  3
AutoCAD 2000
 90
        0
280
     0
281
     0
  0
CLASS
  1
LAYOUT
  2
AcDbLayout
  3
AutoCAD 2000
 90
        0
280
     0
281
     0
  0
CLASS
  1
DICTIONARYVAR
  2
AcDbDictionaryVar
  3
AutoCAD 2000
 90
        0
280
     0
281
     0
  0
ENDSEC
  0
SECTION
  2
TABLES
  0
TABLE
  2
VPORT
  5
8
330
0
100
AcDbSymbolTable
 70
     2
  0
VPORT
  5
CCE
330
8
100
AcDbSymbolTableRecord
100
AcDbViewportTableRecord
  2
*Active
 70
     0
 10
0.0
 20
0.0
 11
1.0
 21
1.0
 12
1324.130085876097
 22
-1222.625898832316
 13
0.0
 23
0.0
 14
10.0
 24
10.0
 15
10.0
 25
10.0
 16
0.0
 26
0.0
 36
1.0
 17
0.0
 27
0.0
 37
0.0
 40
1081.329098185638
 41
1.440860215053763
 42
50.0
 43
0.0
 44
0.0
 50
0.0
 51
0.0
 71
     0
 72
   100
 73
     1
 74
     3
 75
     0
 76
     0
 77
     0
 78
     0
281
     0
 65
     1
110
568.3583554076258
120
-1421.343976543565
130
-0.0000000003672348
111
1.0
121
0.0
131
0.0
112
0.0
122
1.0
132
0.0
 79
     0
146
0.0
  0
ENDTAB
  0
TABLE
  2
LTYPE
  5
5
330
0
100
AcDbSymbolTable
 70
     1
  0
LTYPE
  5
14
330
5
100
AcDbSymbolTableRecord
100
AcDbLinetypeTableRecord
  2
ByBlock
 70
     0
  3

 72
    65
 73
     0
 40
0.0
  0
LTYPE
  5
15
330
5
100
AcDbSymbolTableRecord
100
AcDbLinetypeTableRecord
  2
ByLayer
 70
     0
  3

 72
    65
 73
     0
 40
0.0
  0
LTYPE
  5
16
330
5
100
AcDbSymbolTableRecord
100
AcDbLinetypeTableRecord
  2
Continuous
 70
     0
  3
Solid line
 72
    65
 73
     0
 40
0.0
  0
ENDTAB
  0
TABLE
  2
LAYER
  5
2
102
{ACAD_XDICTIONARY
360
2B
102
}
330
0
100
AcDbSymbolTable
 70
     2
  0
LAYER
  5
10
330
2
100
AcDbSymbolTableRecord
100
AcDbLayerTableRecord
  2
0
 70
     0
 62
     7
  6
Continuous
370
    -3
390
F
  0
LAYER
  5
B3
330
2
100
AcDbSymbolTableRecord
100
AcDbLayerTableRecord
  2
PAZ5560
 70
     0
 62
     7
  6
Continuous
370
    -3
390
F
  0
ENDTAB
  0
TABLE
  2
STYLE
  5
3
330
0
100
AcDbSymbolTable
 70
     1
  0
STYLE
  5
11
330
3
100
AcDbSymbolTableRecord
100
AcDbTextStyleTableRecord
  2
Standard
 70
     0
 40
0.0
 41
1.0
 50
0.0
 71
     0
 42
2.5
  3
txt
  4

  0
ENDTAB
  0
TABLE
  2
VIEW
  5
6
330
0
100
AcDbSymbolTable
 70
     0
  0
ENDTAB
  0
TABLE
  2
UCS
  5
7
330
0
100
AcDbSymbolTable
 70
     0
  0
ENDTAB
  0
TABLE
  2
APPID
  5
9
330
0
100
AcDbSymbolTable
 70
     1
  0
APPID
  5
12
330
9
100
AcDbSymbolTableRecord
100
AcDbRegAppTableRecord
  2
ACAD
 70
     0
  0
ENDTAB
  0
TABLE
  2
DIMSTYLE
  5
A
330
0
100
AcDbSymbolTable
 70
     1
100
AcDbDimStyleTable
 71
     0
  0
DIMSTYLE
105
27
330
A
100
AcDbSymbolTableRecord
100
AcDbDimStyleTableRecord
  2
ISO-25
 70
     0
 41
2.5
 42
0.625
 43
3.75
 44
1.25
 73
     0
 74
     0
 77
     1
 78
     8
140
2.5
141
2.5
143
0.03937007874016
147
0.625
171
     3
172
     1
271
     2
272
     2
274
     3
278
    44
283
     0
284
     8
340
11
  0
ENDTAB
  0
TABLE
  2
BLOCK_RECORD
  5
1
330
0
100
AcDbSymbolTable
 70
     1
  0
BLOCK_RECORD
  5
1F
330
1
100
AcDbSymbolTableRecord
100
AcDbBlockTableRecord
  2
*Model_Space
340
22
  0
BLOCK_RECORD
  5
1B
330
1
100
AcDbSymbolTableRecord
100
AcDbBlockTableRecord
  2
*Paper_Space
340
1E
  0
BLOCK_RECORD
  5
C74
330
1
100
AcDbSymbolTableRecord
100
AcDbBlockTableRecord
  2
paz5560
340
0
310
2800000020000000200000000100080000000000000400000000000000000000000000000000000000000000000080000080000000808000800000008000800080800000C0C0C000C0DCC000F0CAA6000020400000206000002080000020A0000020C0000020E00000400000004020000040400000406000004080000040A0
310
000040C0000040E00000600000006020000060400000606000006080000060A0000060C0000060E00000800000008020000080400000806000008080000080A0000080C0000080E00000A0000000A0200000A0400000A0600000A0800000A0A00000A0C00000A0E00000C0000000C0200000C0400000C0600000C0800000C0
310
A00000C0C00000C0E00000E0000000E0200000E0400000E0600000E0800000E0A00000E0C00000E0E00040000000400020004000400040006000400080004000A0004000C0004000E00040200000402020004020400040206000402080004020A0004020C0004020E000404000004040200040404000404060004040800040
310
40A0004040C0004040E00040600000406020004060400040606000406080004060A0004060C0004060E00040800000408020004080400040806000408080004080A0004080C0004080E00040A0000040A0200040A0400040A0600040A0800040A0A00040A0C00040A0E00040C0000040C0200040C0400040C0600040C08000
310
40C0A00040C0C00040C0E00040E0000040E0200040E0400040E0600040E0800040E0A00040E0C00040E0E00080000000800020008000400080006000800080008000A0008000C0008000E00080200000802020008020400080206000802080008020A0008020C0008020E00080400000804020008040400080406000804080
310
008040A0008040C0008040E00080600000806020008060400080606000806080008060A0008060C0008060E00080800000808020008080400080806000808080008080A0008080C0008080E00080A0000080A0200080A0400080A0600080A0800080A0A00080A0C00080A0E00080C0000080C0200080C0400080C0600080C0
310
800080C0A00080C0C00080C0E00080E0000080E0200080E0400080E0600080E0800080E0A00080E0C00080E0E000C0000000C0002000C0004000C0006000C0008000C000A000C000C000C000E000C0200000C0202000C0204000C0206000C0208000C020A000C020C000C020E000C0400000C0402000C0404000C0406000C0
310
408000C040A000C040C000C040E000C0600000C0602000C0604000C0606000C0608000C060A000C060C000C060E000C0800000C0802000C0804000C0806000C0808000C080A000C080C000C080E000C0A00000C0A02000C0A04000C0A06000C0A08000C0A0A000C0A0C000C0A0E000C0C00000C0C02000C0C04000C0C06000
310
C0C08000C0C0A000F0FBFF00A4A0A000808080000000FF0000FF000000FFFF00FF000000FF00FF00FFFF0000FFFFFF0000000000000000000000000000000000000000000000000000000000000000000000000000000000000000000000000000000000000000000000000000000000000000000000000000000000000000
310
00000000000000000000000000000000000000000000000000000000000000000000000000000000000000000000000000000000000000000000000000000000000000000000000000000000000000000000000000000000000000000000000000000000000000000000000000000000000000000000000000000000000000
310
00000000000000000000000000000000000000000000000000000000000000000000000000000000000000000000000000000000000000000000000000000000000000000000000000000000000000000000000000000000000000000000000000000000000000000000000000000000000000000000000000000000000000
310
00000000000000000000000000000000000000000000000000000000000000000000000000000000000000000000000000000000FFFFFFFFFFFF000000000000000000000000000000000000FFFFFFFFFEFF0000000000000000FF00000000000000000000000000000000FF00000000FF000000000000000000FF00000000
310
000000000000000000000000FF000000000000000000000000000000FF0000000000000000000000000000FF0000000000000000000000000000000000FF000000000000000000000000FF00000000000000000000000000000000000000FF00000000000000000000FF0000000000000000000000000000000000000000FF
310
00000000FFFF00000000FF000000000000000000000000000000000000000000FFFFFFFFFFFFFFFFFFFF00000000000000000000000000000000000000000000000000000000000000000000000000000000000000000000000000000000000000000000000000000000000000000000000000000000000000000000000000
310
00000000000000000000000000000000000000000000000000000000000000000000000000000000000000000000000000000000000000000000000000000000000000000000000000000000000000000000000000000000000000000000000000000000000000000000000000000000000000000000000000000000000000
310
00000000000000000000000000000000000000000000000000000000000000000000000000000000000000000000000000000000000000000000000000000000000000000000000000000000000000000000000000000000000000000000000000000000000000000000000000000000000000000000000000000000000000
310
0000000000000000000000000000000000000000000000000000000000000000000000000000000000000000000000000000000000000000
102
{BLKREFS
331
CB5
102
}
1001
ACAD
1000
DesignCenter Data
1002
{
1070
     1
1070
     4
1002
}
  0
ENDTAB
  0
ENDSEC
  0
SECTION
  2
BLOCKS
  0
BLOCK
  5
20
330
1F
100
AcDbEntity
  8
0
100
AcDbBlockBegin
  2
*Model_Space
 70
     0
 10
0.0
 20
0.0
 30
0.0
  3
*Model_Space
  1

  0
ENDBLK
  5
21
330
1F
100
AcDbEntity
  8
0
100
AcDbBlockEnd
  0
BLOCK
  5
1C
330
1B
100
AcDbEntity
 67
     1
  8
0
100
AcDbBlockBegin
  2
*Paper_Space
 70
     0
 10
0.0
 20
0.0
 30
0.0
  3
*Paper_Space
  1

  0
ENDBLK
  5
1D
330
1B
100
AcDbEntity
 67
     1
  8
0
100
AcDbBlockEnd
  0
BLOCK
  5
C75
330
C74
100
AcDbEntity
  8
0
100
AcDbBlockBegin
  2
paz5560
 70
     0
 10
0.0
 20
0.0
 30
0.0
  3
paz5560
  1

  0
ARC
  5
C77
330
C74
100
AcDbEntity
  8
0
 62
     7
100
AcDbCircle
 10
743.0
 20
364.1000000000003
 30
0.0
 40
19.25
100
AcDbArc
 50
90.0
 51
284.9999999999755
  0
ARC
  5
C78
330
C74
100
AcDbEntity
  8
0
 62
     7
100
AcDbCircle
 10
743.0
 20
364.1000000000003
 30
0.0
 40
13.25
100
AcDbArc
 50
90.0
 51
284.9999999999944
  0
ARC
  5
C79
330
C74
100
AcDbEntity
  8
0
 62
     7
100
AcDbCircle
 10
743.5
 20
365.7999999999992
 30
0.0
 40
28.94999999999999
100
AcDbArc
 50
195.4374163889846
 51
270.0
  0
ARC
  5
C7A
330
C74
100
AcDbEntity
  8
0
 62
     7
100
AcDbCircle
 10
743.5
 20
365.7999999999992
 30
0.0
 40
22.94999999999999
100
AcDbArc
 50
195.4374163889703
 51
270.0
  0
LINE
  5
C7B
330
C74
100
AcDbEntity
  8
0
 62
     4
100
AcDbLine
 10
733.0
 20
360.1000000000003
 30
0.0
 11
753.0
 21
360.1000000000003
 31
0.0
  0
ARC
  5
C7C
330
C74
100
AcDbEntity
  8
0
 62
     7
100
AcDbCircle
 10
226.3523093453113
 20
4.25
 30
0.0
 40
27.5
100
AcDbArc
 50
270.0
 51
324.9970386849235
  0
LINE
  5
C7D
330
C74
100
AcDbEntity
  8
0
 62
     7
100
AcDbLine
 10
248.8781752922368
 20
-11.52451626331094
 30
0.0
 11
515.2292333778168
 21
368.8223754642258
 31
0.0
  0
LINE
  5
C7E
330
C74
100
AcDbEntity
  8
0
 62
     7
100
AcDbLine
 10
243.9634409038117
 20
-8.082803624043663
 30
0.0
 11
510.3144989893917
 21
372.2640881034931
 31
0.0
  0
LINE
  5
C7F
330
C74
100
AcDbEntity
  8
0
 62
     7
100
AcDbLine
 10
0.0
 20
-23.25
 30
0.0
 11
226.3523093453113
 21
-23.25
 31
0.0
  0
LINE
  5
C80
330
C74
100
AcDbEntity
  8
0
 62
     7
100
AcDbLine
 10
0.0
 20
-17.25
 30
0.0
 11
226.3523093453113
 21
-17.25
 31
0.0
  0
LINE
  5
C81
330
C74
100
AcDbEntity
  8
0
 62
     7
100
AcDbLine
 10
4.982266618215362
 20
14.5940721560637
 30
0.0
 11
28.16448644915363
 21
8.382415073603624
 31
0.0
  0
LINE
  5
C82
330
C74
100
AcDbEntity
  8
0
 62
     7
100
AcDbLine
 10
3.429352347608073
 20
8.798517198330955
 30
0.0
 11
26.61157217854634
 21
2.586860115869058
 31
0.0
  0
ARC
  5
C83
330
C74
100
AcDbEntity
  8
0
 62
     7
100
AcDbCircle
 10
0.0
 20
-4.0
 30
0.0
 40
19.25
100
AcDbArc
 50
75.00000000002443
 51
270.0
  0
ARC
  5
C84
330
C74
100
AcDbEntity
  8
0
 62
     7
100
AcDbCircle
 10
0.0
 20
-4.0
 30
0.0
 40
13.25
100
AcDbArc
 50
75.00000000000555
 51
270.0
  0
LINE
  5
C85
330
C74
100
AcDbEntity
  8
0
 62
     4
100
AcDbLine
 10
0.0
 20
-9.748841772598098
 30
0.0
 11
0.0
 21
9.748841772596279
 31
0.0
  0
LINE
  5
C86
330
C74
100
AcDbEntity
  8
0
 62
     4
100
AcDbLine
 10
-10.0
 20
0.0
 30
0.0
 11
10.0
 21
0.0
 31
0.0
  0
LINE
  5
C87
330
C74
100
AcDbEntity
  8
0
 62
     7
100
AcDbLine
 10
26.61157217854634
 20
2.586860115869058
 30
0.0
 11
28.16448644915363
 21
8.382415073603624
 31
0.0
  0
ARC
  5
C88
330
C74
100
AcDbEntity
  8
0
 62
     7
100
AcDbCircle
 10
226.3523093453113
 20
4.25
 30
0.0
 40
21.49999999999999
100
AcDbArc
 50
270.0
 51
324.9970386849128
  0
ARC
  5
C89
330
C74
100
AcDbEntity
  8
0
 62
     7
100
AcDbCircle
 10
531.6116813392145
 20
357.3500000000003
 30
0.0
 40
20.0
100
AcDbArc
 50
90.0
 51
144.9970386849234
  0
ARC
  5
C8A
330
C74
100
AcDbEntity
  8
0
 62
     7
100
AcDbCircle
 10
531.6116813392145
 20
357.3500000000003
 30
0.0
 40
26.0
100
AcDbArc
 50
90.0
 51
144.9970386849272
  0
LINE
  5
C8B
330
C74
100
AcDbEntity
  8
0
 62
     7
100
AcDbLine
 10
531.6116813392145
 20
377.3500000000003
 30
0.0
 11
700.7989906845323
 21
377.3500000000003
 31
0.0
  0
LINE
  5
C8C
330
C74
100
AcDbEntity
  8
0
 62
     7
100
AcDbLine
 10
531.6116813392145
 20
383.3500000000003
 30
0.0
 11
700.7989906845323
 21
383.3500000000003
 31
0.0
  0
ARC
  5
C8D
330
C74
100
AcDbEntity
  8
0
 62
     7
100
AcDbCircle
 10
700.7989906845323
 20
364.8999999999996
 30
0.0
 40
12.45
100
AcDbArc
 50
15.43741638899719
 51
90.0
  0
ARC
  5
C8E
330
C74
100
AcDbEntity
  8
0
 62
     7
100
AcDbCircle
 10
700.7989906845323
 20
364.8999999999996
 30
0.0
 40
18.44999999999999
100
AcDbArc
 50
15.43741638898463
 51
90.0
  0
LINE
  5
C8F
330
C74
100
AcDbEntity
  8
0
 62
     7
100
AcDbLine
 10
712.7998168470512
 20
368.2140113785008
 30
0.0
 11
715.5944644654518
 21
358.0939253487867
 31
0.0
  0
LINE
  5
C90
330
C74
100
AcDbEntity
  8
0
 62
     7
100
AcDbLine
 10
718.5833475277904
 20
369.8111252958497
 30
0.0
 11
721.3779951461765
 21
359.6910392661375
 31
0.0
  0
ARC
  5
C91
330
C74
100
AcDbEntity
  8
0
 62
     7
100
AcDbCircle
 10
1443.798990684532
 20
-4.799999999999272
 30
0.0
 40
18.44999999999999
100
AcDbArc
 50
270.0
 51
344.5625836110153
  0
ARC
  5
C92
330
C74
100
AcDbEntity
  8
0
 62
     7
100
AcDbCircle
 10
1274.611681339214
 20
2.75
 30
0.0
 40
26.0
100
AcDbArc
 50
215.0029613150727
 51
270.0
  0
LINE
  5
C93
330
C74
100
AcDbEntity
  8
0
 62
     7
100
AcDbLine
 10
991.8781752922368
 20
371.6245162633094
 30
0.0
 11
1258.229233377816
 21
-8.722375464225478
 31
0.0
  0
LINE
  5
C94
330
C74
100
AcDbEntity
  8
0
 62
     7
100
AcDbLine
 10
986.9634409038116
 20
368.1828036240422
 30
0.0
 11
1253.314498989391
 21
-12.16408810349457
 31
0.0
  0
LINE
  5
C95
330
C74
100
AcDbEntity
  8
0
 62
     7
100
AcDbLine
 10
743.0
 20
383.3500000000003
 30
0.0
 11
969.3523093453114
 21
383.3499999999985
 31
0.0
  0
LINE
  5
C96
330
C74
100
AcDbEntity
  8
0
 62
     7
100
AcDbLine
 10
743.0
 20
377.3500000000003
 30
0.0
 11
969.3523093453114
 21
377.3499999999985
 31
0.0
  0
ARC
  5
C97
330
C74
100
AcDbEntity
  8
0
 62
     7
100
AcDbCircle
 10
768.5
 20
356.1000000000003
 30
0.0
 40
19.25
100
AcDbArc
 50
270.0
 51
105.0000000000196
  0
LINE
  5
C98
330
C74
100
AcDbEntity
  8
0
 62
     7
100
AcDbLine
 10
769.6115721785463
 20
357.5131398841294
 30
0.0
 11
771.1644864491536
 21
351.7175849263949
 31
0.0
  0
LINE
  5
C99
330
C74
100
AcDbEntity
  8
0
 62
     7
100
AcDbLine
 10
746.429352347608
 20
351.3014828016693
 30
0.0
 11
769.6115721785463
 21
357.5131398841294
 31
0.0
  0
ARC
  5
C9A
330
C74
100
AcDbEntity
  8
0
 62
     7
100
AcDbCircle
 10
768.5
 20
356.1000000000003
 30
0.0
 40
13.25
100
AcDbArc
 50
270.0
 51
105.0000000000007
  0
LINE
  5
C9B
330
C74
100
AcDbEntity
  8
0
 62
     4
100
AcDbLine
 10
743.0
 20
350.1000000000003
 30
0.0
 11
743.0
 21
370.1000000000003
 31
0.0
  0
LINE
  5
C9C
330
C74
100
AcDbEntity
  8
0
 62
     7
100
AcDbLine
 10
747.9822666182153
 20
345.5059278439348
 30
0.0
 11
771.1644864491536
 21
351.7175849263949
 31
0.0
  0
LINE
  5
C9D
330
C74
100
AcDbEntity
  8
0
 62
     7
100
AcDbLine
 10
743.5
 20
336.8499999999985
 30
0.0
 11
768.5
 21
336.8500000000003
 31
0.0
  0
LINE
  5
C9E
330
C74
100
AcDbEntity
  8
0
 62
     7
100
AcDbLine
 10
743.5
 20
342.8499999999985
 30
0.0
 11
768.5
 21
342.8500000000003
 31
0.0
  0
LINE
  5
C9F
330
C74
100
AcDbEntity
  8
0
 62
     7
100
AcDbLine
 10
763.5177333817701
 20
374.694072156064
 30
0.0
 11
740.3355135508318
 21
368.4824150736039
 31
0.0
  0
LINE
  5
CA0
330
C74
100
AcDbEntity
  8
0
 62
     7
100
AcDbLine
 10
765.0706476523919
 20
368.8985171983294
 30
0.0
 11
741.8884278214536
 21
362.6868601158694
 31
0.0
  0
LINE
  5
CA1
330
C74
100
AcDbEntity
  8
0
 62
     7
100
AcDbLine
 10
741.8884278214536
 20
362.6868601158694
 30
0.0
 11
740.3355135508318
 21
368.4824150736039
 31
0.0
  0
ARC
  5
CA2
330
C74
100
AcDbEntity
  8
0
 62
     7
100
AcDbCircle
 10
969.3523093453114
 20
355.8499999999985
 30
0.0
 40
27.5
100
AcDbArc
 50
35.00296131507653
 51
90.0
  0
ARC
  5
CA3
330
C74
100
AcDbEntity
  8
0
 62
     7
100
AcDbCircle
 10
969.3523093453114
 20
355.8499999999985
 30
0.0
 40
21.49999999999999
100
AcDbArc
 50
35.00296131508719
 51
90.0
  0
LINE
  5
CA4
330
C74
100
AcDbEntity
  8
0
 62
     7
100
AcDbLine
 10
1274.611681339214
 20
-17.25
 30
0.0
 11
1443.798990684532
 21
-17.25
 31
0.0
  0
LINE
  5
CA5
330
C74
100
AcDbEntity
  8
0
 62
     7
100
AcDbLine
 10
1274.611681339214
 20
-23.25
 30
0.0
 11
1443.798990684532
 21
-23.25
 31
0.0
  0
ARC
  5
CA6
330
C74
100
AcDbEntity
  8
0
 62
     7
100
AcDbCircle
 10
1274.611681339214
 20
2.75
 30
0.0
 40
20.0
100
AcDbArc
 50
215.0029613150765
 51
270.0
  0
ARC
  5
CA7
330
C74
100
AcDbEntity
  8
0
 62
     7
100
AcDbCircle
 10
1443.798990684532
 20
-4.799999999999272
 30
0.0
 40
12.45
100
AcDbArc
 50
270.0
 51
344.5625836110028
  0
LINE
  5
CA8
330
C74
100
AcDbEntity
  8
0
 62
     7
100
AcDbLine
 10
1486.5
 20
23.25
 30
0.0
 11
1511.5
 21
23.25
 31
0.0
  0
ARC
  5
CA9
330
C74
100
AcDbEntity
  8
0
 62
     7
100
AcDbCircle
 10
1511.5
 20
4.0
 30
0.0
 40
19.25
100
AcDbArc
 50
254.9999999999866
 51
90.0
  0
LINE
  5
CAA
330
C74
100
AcDbEntity
  8
0
 62
     7
100
AcDbLine
 10
1506.51773338177
 20
-14.59407215606552
 30
0.0
 11
1483.335513550831
 21
-8.382415073603624
 31
0.0
  0
LINE
  5
CAB
330
C74
100
AcDbEntity
  8
0
 62
     7
100
AcDbLine
 10
1508.070647652392
 20
-8.798517198330955
 30
0.0
 11
1484.888427821453
 21
-2.586860115869058
 31
0.0
  0
ARC
  5
CAC
330
C74
100
AcDbEntity
  8
0
 62
     7
100
AcDbCircle
 10
1511.5
 20
4.0
 30
0.0
 40
13.25
100
AcDbArc
 50
255.0000000000055
 51
90.0
  0
LINE
  5
CAD
330
C74
100
AcDbEntity
  8
0
 62
     7
100
AcDbLine
 10
1486.5
 20
17.25
 30
0.0
 11
1511.5
 21
17.25
 31
0.0
  0
ARC
  5
CAE
330
C74
100
AcDbEntity
  8
0
 62
     7
100
AcDbCircle
 10
1486.5
 20
-5.700000000000727
 30
0.0
 40
28.94999999999999
100
AcDbArc
 50
90.0
 51
164.5625836110153
  0
ARC
  5
CAF
330
C74
100
AcDbEntity
  8
0
 62
     7
100
AcDbCircle
 10
1486.5
 20
-5.700000000000727
 30
0.0
 40
22.94999999999999
100
AcDbArc
 50
90.0
 51
164.5625836110171
  0
LINE
  5
CB0
330
C74
100
AcDbEntity
  8
0
 62
     4
100
AcDbLine
 10
1486.0
 20
10.0
 30
0.0
 11
1486.0
 21
-10.0
 31
0.0
  0
LINE
  5
CB1
330
C74
100
AcDbEntity
  8
0
 62
     7
100
AcDbLine
 10
1455.799816847051
 20
-8.114011378500435
 30
0.0
 11
1458.594464465452
 21
2.006074651213566
 31
0.0
  0
LINE
  5
CB2
330
C74
100
AcDbEntity
  8
0
 62
     7
100
AcDbLine
 10
1461.58334752779
 20
-9.711125295851161
 30
0.0
 11
1464.377995146176
 21
0.4089607338628412
 31
0.0
  0
LINE
  5
CB3
330
C74
100
AcDbEntity
  8
0
 62
     7
100
AcDbLine
 10
1484.888427821453
 20
-2.586860115869058
 30
0.0
 11
1483.335513550831
 21
-8.382415073603624
 31
0.0
  0
LINE
  5
CB4
330
C74
100
AcDbEntity
  8
0
 62
     4
100
AcDbLine
 10
1476.0
 20
0.0
 30
0.0
 11
1496.0
 21
0.0
 31
0.0
  0
ENDBLK
  5
C76
330
C74
100
AcDbEntity
  8
0
100
AcDbBlockEnd
  0
ENDSEC
  0
SECTION
  2
ENTITIES
  0
INSERT
  5
CB5
330
1F
100
AcDbEntity
  8
PAZ5560
100
AcDbBlockReference
  2
paz5560
 10
568.3583554076258
 20
-1421.343976543565
 30
-0.0000000003672348
  0
VIEWPORT
  5
6A
330
1B
100
AcDbEntity
 67
     1
  8
0
100
AcDbViewport
 10
144.2296600341796
 20
98.97533035278321
 30
0.0
 40
348.3547377345459
 41
222.1517806396484
 68
     1
 69
     1
 12
144.2296600341796
 22
98.97533035278321
 13
0.0
 23
0.0
 14
10.0
 24
10.0
 15
10.0
 25
10.0
 16
0.0
 26
0.0
 36
1.0
 17
0.0
 27
0.0
 37
0.0
 42
50.0
 43
0.0
 44
0.0
 45
222.1517806396484
 50
0.0
 51
0.0
 72
   100
 90
    32800
  1

281
     0
 71
     1
 74
     0
110
0.0
120
0.0
130
0.0
111
1.0
121
0.0
131
0.0
112
0.0
122
1.0
132
0.0
 79
     0
146
0.0
  0
VIEWPORT
  5
6C
330
1B
100
AcDbEntity
 67
     1
  8
0
100
AcDbViewport
 10
144.2296578884124
 20
98.97533607482911
 30
0.0
 40
230.7674526214599
 41
158.3605377197265
 68
     2
 69
     2
 12
471.9925402099685
 22
207.0118385025535
 13
0.0
 23
0.0
 14
10.0
 24
10.0
 15
10.0
 25
10.0
 16
0.0
 26
0.0
 36
1.0
 17
0.0
 27
0.0
 37
0.0
 42
50.0
 43
0.0
 44
0.0
 45
537.2024815614429
 50
0.0
 51
0.0
 72
   100
 90
    32864
  1

281
     0
 71
     1
 74
     0
110
330.2484756222961
120
239.5669321729576
130
0.0
111
1.0
121
0.0
131
0.0
112
0.0
122
1.0
132
0.0
 79
     0
146
0.0
  0
ENDSEC
  0
SECTION
  2
OBJECTS
  0
DICTIONARY
  5
C
330
0
100
AcDbDictionary
281
     1
  3
ACAD_GROUP
350
D
  3
ACAD_LAYOUT
350
1A
  3
ACAD_MLINESTYLE
350
17
  3
ACAD_PLOTSETTINGS
350
19
  3
ACAD_PLOTSTYLENAME
350
E
  3
AcDbVariableDictionary
350
44
  0
DICTIONARY
  5
2B
330
2
100
AcDbDictionary
280
     1
281
     1
  3
ACAD_LAYERFILTERS
360
2C
  0
DICTIONARY
  5
D
102
{ACAD_REACTORS
330
C
102
}
330
C
100
AcDbDictionary
281
     1
  0
DICTIONARY
  5
1A
102
{ACAD_REACTORS
330
C
102
}
330
C
100
AcDbDictionary
281
     1
  3
Layout1
350
1E
  3
Model
350
22
  0
DICTIONARY
  5
17
102
{ACAD_REACTORS
330
C
102
}
330
C
100
AcDbDictionary
281
     1
  3
Standard
350
18
  0
DICTIONARY
  5
19
102
{ACAD_REACTORS
330
C
102
}
330
C
100
AcDbDictionary
281
     1
  0
ACDBDICTIONARYWDFLT
  5
E
102
{ACAD_REACTORS
330
C
102
}
330
C
100
AcDbDictionary
281
     1
  3
Normal
350
F
100
AcDbDictionaryWithDefault
340
F
  0
DICTIONARY
  5
44
102
{ACAD_REACTORS
330
C
102
}
330
C
100
AcDbDictionary
281
     1
  3
DIMASSOC
350
46
  3
HIDETEXT
350
45
  0
DICTIONARY
  5
2C
102
{ACAD_REACTORS
330
2B
102
}
330
2B
100
AcDbDictionary
280
     1
281
     1
  3
GEO
360
2D
  3
RAK
360
2E
  3
RAK&GEO
360
2F
  0
LAYOUT
  5
1E
102
{ACAD_REACTORS
330
1A
102
}
330
1A
100
AcDbPlotSettings
  1

  2
\\AOBSRV1\FIN9
  4
A4
  6

 40
6.011333465576171
 41
4.233341693878173
 42
6.011322021484375
 43
4.23333740234375
 44
209.9733276367187
 45
296.9259948730469
 46
0.0
 47
0.0
 48
0.0
 49
0.0
140
0.0
141
0.0
142
1.0
143
1.0
 70
   688
 72
     1
 73
     1
 74
     5
  7

 75
    16
147
1.0
148
0.0
149
0.0
100
AcDbLayout
  1
Layout1
 70
     1
 71
     1
 10
-4.23333740234375
 20
-6.011333465576171
 11
292.6926574707031
 21
203.9619941711425
 12
0.0
 22
0.0
 32
0.0
 14
28.8459315776825
 24
19.79506721496582
 34
0.0
 15
259.6133841991424
 25
178.1556049346923
 35
0.0
146
0.0
 13
0.0
 23
0.0
 33
0.0
 16
1.0
 26
0.0
 36
0.0
 17
0.0
 27
1.0
 37
0.0
 76
     0
330
1B
331
6A
  0
LAYOUT
  5
22
102
{ACAD_REACTORS
330
1A
102
}
330
1A
100
AcDbPlotSettings
  1

  2
\\AOBSRV1\FIN9
  4

  6

 40
0.0
 41
0.0
 42
0.0
 43
0.0
 44
0.0
 45
0.0
 46
0.0
 47
0.0
 48
0.0
 49
0.0
140
0.0
141
0.0
142
1.0
143
1.0
 70
  1712
 72
     0
 73
     0
 74
     0
  7

 75
     0
147
1.0
148
0.0
149
0.0
100
AcDbLayout
  1
Model
 70
     1
 71
     0
 10
0.0
 20
0.0
 11
12.0
 21
9.0
 12
0.0
 22
0.0
 32
0.0
 14
0.0
 24
0.0
 34
0.0
 15
0.0
 25
0.0
 35
0.0
146
0.0
 13
0.0
 23
0.0
 33
0.0
 16
1.0
 26
0.0
 36
0.0
 17
0.0
 27
1.0
 37
0.0
 76
     0
330
1F
  0
MLINESTYLE
  5
18
102
{ACAD_REACTORS
330
17
102
}
330
17
100
AcDbMlineStyle
  2
STANDARD
 70
     0
  3

 62
   256
 51
90.0
 52
90.0
 71
     2
 49
0.5
 62
   256
  6
BYLAYER
 49
-0.5
 62
   256
  6
BYLAYER
  0
ACDBPLACEHOLDER
  5
F
102
{ACAD_REACTORS
330
E
102
}
330
E
  0
DICTIONARYVAR
  5
46
102
{ACAD_REACTORS
330
44
102
}
330
44
100
DictionaryVariables
280
     0
  1
2
  0
DICTIONARYVAR
  5
45
102
{ACAD_REACTORS
330
44
102
}
330
44
100
DictionaryVariables
280
     0
  1
1
  0
XRECORD
  5
2D
102
{ACAD_REACTORS
330
2C
102
}
330
2C
100
AcDbXrecord
280
     1
  1
GEO
  1
GEO-*
  1
*
  1
*
 70
     0
  1
*
  1
*
  0
XRECORD
  5
2E
102
{ACAD_REACTORS
330
2C
102
}
330
2C
100
AcDbXrecord
280
     1
  1
RAK
  1
RAK-*
  1
*
  1
*
 70
     0
  1
*
  1
*
  0
XRECORD
  5
2F
102
{ACAD_REACTORS
330
2C
102
}
330
2C
100
AcDbXrecord
280
     1
  1
RAK&GEO
  1
RAK-*,GEO-*
  1
*
  1
*
 70
     0
  1
*
  1
*
  0
ENDSEC
  0
EOF
