  0
SECTION
  2
HEADER
  9
$ACADVER
  1
AC1015
  9
$ACADMAINTVER
 70
    14
  9
$DWGCODEPAGE
  3
ANSI_1252
  9
$INSBASE
 10
0.0
 20
0.0
 30
0.0
  9
$EXTMIN
 10
431.5575859812433
 20
10.98309939910049
 30
0.0
  9
$EXTMAX
 10
1970.613935480559
 20
425.6222330364997
 30
0.0
  9
$LIMMIN
 10
0.0
 20
0.0
  9
$LIMMAX
 10
420.0
 20
297.0
  9
$ORTHOMODE
 70
     0
  9
$REGENMODE
 70
     1
  9
$FILLMODE
 70
     1
  9
$QTEXTMODE
 70
     0
  9
$MIRRTEXT
 70
     1
  9
$LTSCALE
 40
1.0
  9
$ATTMODE
 70
     1
  9
$TEXTSIZE
 40
2.5
  9
$TRACEWID
 40
1.0
  9
$TEXTSTYLE
  7
Standard
  9
$CLAYER
  8
0
  9
$CELTYPE
  6
ByLayer
  9
$CECOLOR
 62
   256
  9
$CELTSCALE
 40
1.0
  9
$DISPSILH
 70
     0
  9
$DIMSCALE
 40
1.0
  9
$DIMASZ
 40
2.5
  9
$DIMEXO
 40
0.625
  9
$DIMDLI
 40
3.75
  9
$DIMRND
 40
0.0
  9
$DIMDLE
 40
0.0
  9
$DIMEXE
 40
1.25
  9
$DIMTP
 40
0.0
  9
$DIMTM
 40
0.0
  9
$DIMTXT
 40
2.5
  9
$DIMCEN
 40
2.5
  9
$DIMTSZ
 40
0.0
  9
$DIMTOL
 70
     0
  9
$DIMLIM
 70
     0
  9
$DIMTIH
 70
     0
  9
$DIMTOH
 70
     0
  9
$DIMSE1
 70
     0
  9
$DIMSE2
 70
     0
  9
$DIMTAD
 70
     1
  9
$DIMZIN
 70
     8
  9
$DIMBLK
  1

  9
$DIMASO
 70
     1
  9
$DIMSHO
 70
     1
  9
$DIMPOST
  1

  9
$DIMAPOST
  1

  9
$DIMALT
 70
     0
  9
$DIMALTD
 70
     3
  9
$DIMALTF
 40
0.03937007874016
  9
$DIMLFAC
 40
1.0
  9
$DIMTOFL
 70
     1
  9
$DIMTVP
 40
0.0
  9
$DIMTIX
 70
     0
  9
$DIMSOXD
 70
     0
  9
$DIMSAH
 70
     0
  9
$DIMBLK1
  1

  9
$DIMBLK2
  1

  9
$DIMSTYLE
  2
ISO-25
  9
$DIMCLRD
 70
     0
  9
$DIMCLRE
 70
     0
  9
$DIMCLRT
 70
     0
  9
$DIMTFAC
 40
1.0
  9
$DIMGAP
 40
0.625
  9
$DIMJUST
 70
     0
  9
$DIMSD1
 70
     0
  9
$DIMSD2
 70
     0
  9
$DIMTOLJ
 70
     0
  9
$DIMTZIN
 70
     8
  9
$DIMALTZ
 70
     0
  9
$DIMALTTZ
 70
     0
  9
$DIMUPT
 70
     0
  9
$DIMDEC
 70
     2
  9
$DIMTDEC
 70
     2
  9
$DIMALTU
 70
     2
  9
$DIMALTTD
 70
     3
  9
$DIMTXSTY
  7
Standard
  9
$DIMAUNIT
 70
     0
  9
$DIMADEC
 70
     0
  9
$DIMALTRND
 40
0.0
  9
$DIMAZIN
 70
     0
  9
$DIMDSEP
 70
    44
  9
$DIMATFIT
 70
     3
  9
$DIMFRAC
 70
     0
  9
$DIMLDRBLK
  1

  9
$DIMLUNIT
 70
     2
  9
$DIMLWD
 70
    -2
  9
$DIMLWE
 70
    -2
  9
$DIMTMOVE
 70
     0
  9
$LUNITS
 70
     2
  9
$LUPREC
 70
     4
  9
$SKETCHINC
 40
1.0
  9
$FILLETRAD
 40
10.0
  9
$AUNITS
 70
     0
  9
$AUPREC
 70
     0
  9
$MENU
  1
.
  9
$ELEVATION
 40
0.0
  9
$PELEVATION
 40
0.0
  9
$THICKNESS
 40
0.0
  9
$LIMCHECK
 70
     0
  9
$CHAMFERA
 40
10.0
  9
$CHAMFERB
 40
10.0
  9
$CHAMFERC
 40
20.0
  9
$CHAMFERD
 40
0.0
  9
$SKPOLY
 70
     0
  9
$TDCREATE
 40
2452984.401453715
  9
$TDUCREATE
 40
2452984.359787048
  9
$TDUPDATE
 40
2452989.714325347
  9
$TDUUPDATE
 40
2452989.672658680
  9
$TDINDWG
 40
0.0138507176
  9
$TDUSRTIMER
 40
0.0138505324
  9
$USRTIMER
 70
     1
  9
$ANGBASE
 50
0.0
  9
$ANGDIR
 70
     0
  9
$PDMODE
 70
     0
  9
$PDSIZE
 40
0.0
  9
$PLINEWID
 40
0.0
  9
$SPLFRAME
 70
     0
  9
$SPLINETYPE
 70
     6
  9
$SPLINESEGS
 70
     8
  9
$HANDSEED
  5
1BB
  9
$SURFTAB1
 70
     6
  9
$SURFTAB2
 70
     6
  9
$SURFTYPE
 70
     6
  9
$SURFU
 70
     6
  9
$SURFV
 70
     6
  9
$UCSBASE
  2

  9
$UCSNAME
  2

  9
$UCSORG
 10
451.0857607309199
 20
218.3026662178308
 30
0.0
  9
$UCSXDIR
 10
1.0
 20
0.0
 30
0.0
  9
$UCSYDIR
 10
0.0
 20
1.0
 30
0.0
  9
$UCSORTHOREF
  2

  9
$UCSORTHOVIEW
 70
     0
  9
$UCSORGTOP
 10
0.0
 20
0.0
 30
0.0
  9
$UCSORGBOTTOM
 10
0.0
 20
0.0
 30
0.0
  9
$UCSORGLEFT
 10
0.0
 20
0.0
 30
0.0
  9
$UCSORGRIGHT
 10
0.0
 20
0.0
 30
0.0
  9
$UCSORGFRONT
 10
0.0
 20
0.0
 30
0.0
  9
$UCSORGBACK
 10
0.0
 20
0.0
 30
0.0
  9
$PUCSBASE
  2

  9
$PUCSNAME
  2

  9
$PUCSORG
 10
0.0
 20
0.0
 30
0.0
  9
$PUCSXDIR
 10
1.0
 20
0.0
 30
0.0
  9
$PUCSYDIR
 10
0.0
 20
1.0
 30
0.0
  9
$PUCSORTHOREF
  2

  9
$PUCSORTHOVIEW
 70
     0
  9
$PUCSORGTOP
 10
0.0
 20
0.0
 30
0.0
  9
$PUCSORGBOTTOM
 10
0.0
 20
0.0
 30
0.0
  9
$PUCSORGLEFT
 10
0.0
 20
0.0
 30
0.0
  9
$PUCSORGRIGHT
 10
0.0
 20
0.0
 30
0.0
  9
$PUCSORGFRONT
 10
0.0
 20
0.0
 30
0.0
  9
$PUCSORGBACK
 10
0.0
 20
0.0
 30
0.0
  9
$USERI1
 70
     0
  9
$USERI2
 70
     0
  9
$USERI3
 70
     0
  9
$USERI4
 70
     0
  9
$USERI5
 70
     0
  9
$USERR1
 40
0.0
  9
$USERR2
 40
0.0
  9
$USERR3
 40
0.0
  9
$USERR4
 40
0.0
  9
$USERR5
 40
0.0
  9
$WORLDVIEW
 70
     1
  9
$SHADEDGE
 70
     3
  9
$SHADEDIF
 70
    70
  9
$TILEMODE
 70
     1
  9
$MAXACTVP
 70
    64
  9
$PINSBASE
 10
0.0
 20
0.0
 30
0.0
  9
$PLIMCHECK
 70
     0
  9
$PEXTMIN
 10
28.8459315776825
 20
19.79506721496582
 30
0.0
  9
$PEXTMAX
 10
259.6133841991424
 20
178.1556049346923
 30
0.0
  9
$PLIMMIN
 10
-4.23333740234375
 20
-6.011333465576171
  9
$PLIMMAX
 10
292.6926574707031
 20
203.9619941711425
  9
$UNITMODE
 70
     0
  9
$VISRETAIN
 70
     1
  9
$PLINEGEN
 70
     0
  9
$PSLTSCALE
 70
     1
  9
$TREEDEPTH
 70
  3020
  9
$CMLSTYLE
  2
Standard
  9
$CMLJUST
 70
     0
  9
$CMLSCALE
 40
20.0
  9
$PROXYGRAPHICS
 70
     1
  9
$MEASUREMENT
 70
     1
  9
$CELWEIGHT
370
    -1
  9
$ENDCAPS
280
     0
  9
$JOINSTYLE
280
     0
  9
$LWDISPLAY
290
     0
  9
$INSUNITS
 70
     4
  9
$HYPERLINKBASE
  1

  9
$STYLESHEET
  1

  9
$XEDIT
290
     1
  9
$CEPSNTYPE
380
     0
  9
$PSTYLEMODE
290
     1
  9
$FINGERPRINTGUID
  2
{1F0C9108-7A24-43FE-92C0-F61D6143634A}
  9
$VERSIONGUID
  2
{D2391D9D-9B7A-422A-9CA5-AD74329E3BD2}
  9
$EXTNAMES
290
     1
  9
$PSVPSCALE
 40
0.0
  9
$OLESTARTUP
290
     0
  0
ENDSEC
  0
SECTION
  2
CLASSES
  0
CLASS
  1
ACDBDICTIONARYWDFLT
  2
AcDbDictionaryWithDefault
  3
AutoCAD 2000
 90
        0
280
     0
281
     0
  0
CLASS
  1
ACDBPLACEHOLDER
  2
AcDbPlaceHolder
  3
AutoCAD 2000
 90
        0
280
     0
281
     0
  0
CLASS
  1
LAYOUT
  2
AcDbLayout
  3
AutoCAD 2000
 90
        0
280
     0
281
     0
  0
CLASS
  1
DICTIONARYVAR
  2
AcDbDictionaryVar
  3
AutoCAD 2000
 90
        0
280
     0
281
     0
  0
ENDSEC
  0
SECTION
  2
TABLES
  0
TABLE
  2
VPORT
  5
8
330
0
100
AcDbSymbolTable
 70
     2
  0
VPORT
  5
1BA
330
8
100
AcDbSymbolTableRecord
100
AcDbViewportTableRecord
  2
*Active
 70
     0
 10
0.0
 20
0.0
 11
1.0
 21
1.0
 12
1201.053356049377
 22
253.2516847206666
 13
0.0
 23
0.0
 14
10.0
 24
10.0
 15
10.0
 25
10.0
 16
0.0
 26
0.0
 36
1.0
 17
0.0
 27
0.0
 37
0.0
 40
1106.638563001325
 41
1.398058252427184
 42
50.0
 43
0.0
 44
0.0
 50
0.0
 51
0.0
 71
     0
 72
   100
 73
     1
 74
     3
 75
     0
 76
     0
 77
     0
 78
     0
281
     0
 65
     1
110
451.0857607309199
120
218.3026662178308
130
0.0
111
1.0
121
0.0
131
0.0
112
0.0
122
1.0
132
0.0
 79
     0
146
0.0
  0
ENDTAB
  0
TABLE
  2
LTYPE
  5
5
330
0
100
AcDbSymbolTable
 70
     2
  0
LTYPE
  5
14
330
5
100
AcDbSymbolTableRecord
100
AcDbLinetypeTableRecord
  2
ByBlock
 70
     0
  3

 72
    65
 73
     0
 40
0.0
  0
LTYPE
  5
15
330
5
100
AcDbSymbolTableRecord
100
AcDbLinetypeTableRecord
  2
ByLayer
 70
     0
  3

 72
    65
 73
     0
 40
0.0
  0
LTYPE
  5
16
330
5
100
AcDbSymbolTableRecord
100
AcDbLinetypeTableRecord
  2
Continuous
 70
     0
  3
Solid line
 72
    65
 73
     0
 40
0.0
  0
LTYPE
  5
B2
330
5
100
AcDbSymbolTableRecord
100
AcDbLinetypeTableRecord
  2
CENTER
 70
     0
  3
____ _ ____ _ ____ _ ____ _ ____ _ ____ _ ____
 72
    65
 73
     4
 40
2.0
 49
1.25
 74
     0
 49
-0.25
 74
     0
 49
0.25
 74
     0
 49
-0.25
 74
     0
  0
ENDTAB
  0
TABLE
  2
LAYER
  5
2
102
{ACAD_XDICTIONARY
360
2B
102
}
330
0
100
AcDbSymbolTable
 70
     2
  0
LAYER
  5
10
330
2
100
AcDbSymbolTableRecord
100
AcDbLayerTableRecord
  2
0
 70
     0
 62
     7
  6
Continuous
370
    -3
390
F
  0
LAYER
  5
CE
330
2
100
AcDbSymbolTableRecord
100
AcDbLayerTableRecord
  2
1
 70
     0
 62
     7
  6
Continuous
370
    -3
390
F
  0
ENDTAB
  0
TABLE
  2
STYLE
  5
3
330
0
100
AcDbSymbolTable
 70
     2
  0
STYLE
  5
11
330
3
100
AcDbSymbolTableRecord
100
AcDbTextStyleTableRecord
  2
Standard
 70
     0
 40
0.0
 41
1.0
 50
0.0
 71
     0
 42
2.5
  3
txt
  4

  0
STYLE
  5
30
330
3
100
AcDbSymbolTableRecord
100
AcDbTextStyleTableRecord
  2
ISPC - TNR
 70
     0
 40
0.0
 41
1.0
 50
0.0
 71
     0
 42
17.5
  3
TIMES.TTF
  4

1001
ACAD
1000
Times New Roman
1071
       18
  0
ENDTAB
  0
TABLE
  2
VIEW
  5
6
330
0
100
AcDbSymbolTable
 70
     0
  0
ENDTAB
  0
TABLE
  2
UCS
  5
7
330
0
100
AcDbSymbolTable
 70
     0
  0
ENDTAB
  0
TABLE
  2
APPID
  5
9
330
0
100
AcDbSymbolTable
 70
     1
  0
APPID
  5
12
330
9
100
AcDbSymbolTableRecord
100
AcDbRegAppTableRecord
  2
ACAD
 70
     0
  0
ENDTAB
  0
TABLE
  2
DIMSTYLE
  5
A
330
0
100
AcDbSymbolTable
 70
     4
100
AcDbDimStyleTable
 71
     0
  0
DIMSTYLE
105
27
330
A
100
AcDbSymbolTableRecord
100
AcDbDimStyleTableRecord
  2
ISO-25
 70
     0
 41
2.5
 42
0.625
 43
3.75
 44
1.25
 73
     0
 74
     0
 77
     1
 78
     8
140
2.5
141
2.5
143
0.03937007874016
147
0.625
171
     3
172
     1
271
     2
272
     2
274
     3
278
    44
283
     0
284
     8
340
11
  0
DIMSTYLE
105
31
330
A
100
AcDbSymbolTableRecord
100
AcDbDimStyleTableRecord
  2
ISPC
 70
     0
 40
0.0
 41
3.5
 42
0.0
 43
10.0
 44
1.25
 73
     0
 77
     1
 78
     8
140
3.5
141
0.0
143
0.03937007874016
147
1.0
171
     3
172
     1
271
     0
272
     0
274
     3
278
    44
283
     0
284
     8
340
30
  0
DIMSTYLE
105
32
330
A
100
AcDbSymbolTableRecord
100
AcDbDimStyleTableRecord
  2
ISPC$3
 70
     0
 40
0.0
 41
3.5
 42
0.0
 43
10.0
 44
1.25
 77
     1
 78
     8
140
3.5
141
0.0
143
0.03937007874016
147
1.0
171
     3
271
     0
272
     0
274
     3
278
    44
283
     0
284
     8
340
30
  0
DIMSTYLE
105
33
330
A
100
AcDbSymbolTableRecord
100
AcDbDimStyleTableRecord
  2
ISPC$4
 70
     0
 40
0.0
 41
3.5
 42
0.0
 43
10.0
 44
1.25
 77
     1
 78
     8
140
3.5
141
0.0
143
0.03937007874016
147
1.0
171
     3
271
     0
272
     0
274
     3
278
    44
283
     0
284
     8
340
30
  0
ENDTAB
  0
TABLE
  2
BLOCK_RECORD
  5
1
330
0
100
AcDbSymbolTable
 70
     1
  0
BLOCK_RECORD
  5
1F
330
1
100
AcDbSymbolTableRecord
100
AcDbBlockTableRecord
  2
*Model_Space
340
22
  0
BLOCK_RECORD
  5
1B
330
1
100
AcDbSymbolTableRecord
100
AcDbBlockTableRecord
  2
*Paper_Space
340
1E
  0
BLOCK_RECORD
  5
144
330
1
100
AcDbSymbolTableRecord
100
AcDbBlockTableRecord
  2
au16d
340
0
310
2800000020000000200000000100080000000000000400000000000000000000000000000000000000000000000080000080000000808000800000008000800080800000C0C0C000C0DCC000F0CAA6000020400000206000002080000020A0000020C0000020E00000400000004020000040400000406000004080000040A0
310
000040C0000040E00000600000006020000060400000606000006080000060A0000060C0000060E00000800000008020000080400000806000008080000080A0000080C0000080E00000A0000000A0200000A0400000A0600000A0800000A0A00000A0C00000A0E00000C0000000C0200000C0400000C0600000C0800000C0
310
A00000C0C00000C0E00000E0000000E0200000E0400000E0600000E0800000E0A00000E0C00000E0E00040000000400020004000400040006000400080004000A0004000C0004000E00040200000402020004020400040206000402080004020A0004020C0004020E000404000004040200040404000404060004040800040
310
40A0004040C0004040E00040600000406020004060400040606000406080004060A0004060C0004060E00040800000408020004080400040806000408080004080A0004080C0004080E00040A0000040A0200040A0400040A0600040A0800040A0A00040A0C00040A0E00040C0000040C0200040C0400040C0600040C08000
310
40C0A00040C0C00040C0E00040E0000040E0200040E0400040E0600040E0800040E0A00040E0C00040E0E00080000000800020008000400080006000800080008000A0008000C0008000E00080200000802020008020400080206000802080008020A0008020C0008020E00080400000804020008040400080406000804080
310
008040A0008040C0008040E00080600000806020008060400080606000806080008060A0008060C0008060E00080800000808020008080400080806000808080008080A0008080C0008080E00080A0000080A0200080A0400080A0600080A0800080A0A00080A0C00080A0E00080C0000080C0200080C0400080C0600080C0
310
800080C0A00080C0C00080C0E00080E0000080E0200080E0400080E0600080E0800080E0A00080E0C00080E0E000C0000000C0002000C0004000C0006000C0008000C000A000C000C000C000E000C0200000C0202000C0204000C0206000C0208000C020A000C020C000C020E000C0400000C0402000C0404000C0406000C0
310
408000C040A000C040C000C040E000C0600000C0602000C0604000C0606000C0608000C060A000C060C000C060E000C0800000C0802000C0804000C0806000C0808000C080A000C080C000C080E000C0A00000C0A02000C0A04000C0A06000C0A08000C0A0A000C0A0C000C0A0E000C0C00000C0C02000C0C04000C0C06000
310
C0C08000C0C0A000F0FBFF00A4A0A000808080000000FF0000FF000000FFFF00FF000000FF00FF00FFFF0000FFFFFF0000000000000000000000000000000000000000000000000000000000000000000000000000000000000000000000000000000000000000000000000000000000000000000000000000000000000000
310
00000000000000000000000000000000000000000000000000000000000000000000000000000000000000000000000000000000000000000000000000000000000000000000000000000000000000000000000000000000000000000000000000000000000000000000000000000000000000000000000000000000000000
310
00000000000000000000000000000000000000000000000000000000000000000000000000000000000000000000000000000000000000000000000000000000000000000000000000000000000000000000000000000000000000000000000000000000000000000000000000000000000000000000000000000000000000
310
0000000000000000000000000000000000000000000000000000000000000000000000000000000000000000000000000000000000000000FFFFFFFFFFFFFFFF0000000000000000000000000000000000000000000000FF0000000000000000FF000000000000000000000000000000000000000000FF0000000000000000
310
0000FF000000000000000000000000000000000000FFFF000000000000000000000000FFFF000000000000000000000000FFFF0000FFFF000000000000000000000000FFFF000000000000000000000000FEFF000000000000000000000000000000000000FF00000000000000000000FF0000000000000000000000000000
310
00000000000000FF0000000000000000FF0000000000000000000000000000000000000000000000FFFFFFFFFFFFFFFF00000000000000000000000000000000000000000000000000000000000000000000000000000000000000000000000000000000000000000000000000000000000000000000000000000000000000
310
00000000000000000000000000000000000000000000000000000000000000000000000000000000000000000000000000000000000000000000000000000000000000000000000000000000000000000000000000000000000000000000000000000000000000000000000000000000000000000000000000000000000000
310
00000000000000000000000000000000000000000000000000000000000000000000000000000000000000000000000000000000000000000000000000000000000000000000000000000000000000000000000000000000000000000000000000000000000000000000000000000000000000000000000000000000000000
310
0000000000000000000000000000000000000000000000000000000000000000000000000000000000000000000000000000000000000000
102
{BLKREFS
331
1A9
102
}
1001
ACAD
1000
DesignCenter Data
1002
{
1070
     1
1070
     4
1002
}
  0
ENDTAB
  0
ENDSEC
  0
SECTION
  2
BLOCKS
  0
BLOCK
  5
20
330
1F
100
AcDbEntity
  8
0
100
AcDbBlockBegin
  2
*Model_Space
 70
     0
 10
0.0
 20
0.0
 30
0.0
  3
*Model_Space
  1

  0
ENDBLK
  5
21
330
1F
100
AcDbEntity
  8
0
100
AcDbBlockEnd
  0
BLOCK
  5
1C
330
1B
100
AcDbEntity
 67
     1
  8
0
100
AcDbBlockBegin
  2
*Paper_Space
 70
     0
 10
0.0
 20
0.0
 30
0.0
  3
*Paper_Space
  1

  0
ENDBLK
  5
1D
330
1B
100
AcDbEntity
 67
     1
  8
0
100
AcDbBlockEnd
  0
BLOCK
  5
145
330
144
100
AcDbEntity
  8
0
100
AcDbBlockBegin
  2
au16d
 70
     0
 10
0.0
 20
0.0
 30
0.0
  3
au16d
  1

  0
LINE
  5
147
330
144
100
AcDbEntity
  8
1
  6
Continuous
 62
     7
100
AcDbLine
 10
550.7695205997115
 20
-205.3587000000309
 30
0.0
 11
199.2304794003357
 21
-205.3587000000316
 31
0.0
  0
ARC
  5
148
330
144
100
AcDbEntity
  8
1
  6
Continuous
 62
     7
100
AcDbCircle
 10
526.4405346206476
 20
-118.8587000000309
 30
0.0
 40
75.0
100
AcDbArc
 50
270.0
 51
317.813999999996
  0
LINE
  5
149
330
144
100
AcDbEntity
  8
1
  6
Continuous
 62
     7
100
AcDbLine
 10
223.5594653793414
 20
-193.8587000000318
 30
0.0
 11
526.4405346206476
 21
-193.8587000000309
 31
0.0
  0
LINE
  5
14A
330
144
100
AcDbEntity
  8
1
  6
Continuous
 62
     7
100
AcDbLine
 10
28.7749966367046
 20
-29.50805004973608
 30
0.0
 11
180.7062617384981
 21
-197.1471889140739
 31
0.0
  0
ARC
  5
14B
330
144
100
AcDbEntity
  8
1
  6
Continuous
 62
     7
100
AcDbCircle
 10
223.5594653793414
 20
-118.8587000000318
 30
0.0
 40
75.0
100
AcDbArc
 50
222.1859999999935
 51
270.0
  0
ARC
  5
14C
330
144
100
AcDbEntity
  8
1
  6
Continuous
 62
     7
100
AcDbCircle
 10
199.2304794003357
 20
-180.3587000000316
 30
0.0
 40
25.0
100
AcDbArc
 50
222.1859999999901
 51
270.0
  0
LINE
  5
14D
330
144
100
AcDbEntity
  8
1
  6
Continuous
 62
     7
100
AcDbLine
 10
167.9868123938322
 20
-169.2241667421603
 30
0.0
 11
37.38055870163225
 21
-25.1147901461818
 31
0.0
  0
LINE
  5
14E
330
144
100
AcDbEntity
  8
1
  6
Continuous
 62
     7
100
AcDbLine
 10
-5.25
 20
12.49999999999909
 30
0.0
 11
15.12763237000035
 21
12.49999999999727
 31
0.0
  0
LINE
  5
14F
330
144
100
AcDbEntity
  8
1
  6
Continuous
 62
     7
100
AcDbLine
 10
6.537839889999304
 20
-6.787101522001648
 30
0.0
 11
-7.257391819999611
 21
5.634180900999126
 31
0.0
  0
ARC
  5
150
330
144
100
AcDbEntity
  8
1
  6
Continuous
 62
     7
100
AcDbCircle
 10
0.3497158999998646
 20
9.500001303922545
 30
0.0
 40
20.0000013039235
100
AcDbArc
 50
220.5383093963383
 51
270.0
  0
LINE
  5
151
330
144
100
AcDbEntity
  8
1
  6
Continuous
 62
     7
100
AcDbLine
 10
17.84259579000354
 20
21.49999999999727
 30
0.0
 11
-6.249999999996362
 21
21.49999999999909
 31
0.0
  0
LINE
  5
152
330
144
100
AcDbEntity
  8
1
  6
CENTER
 62
     4
100
AcDbLine
 10
10.18796332142301
 20
0.0
 30
0.0
 11
-8.222456260562466
 21
0.0
 31
0.0
  0
ARC
  5
153
330
144
100
AcDbEntity
  8
1
  6
Continuous
 62
     7
100
AcDbCircle
 10
-5.25
 20
7.863615376998495
 30
0.0
 40
3.00000000029666
100
AcDbArc
 50
179.9999999999821
 51
227.9999999813689
  0
LINE
  5
154
330
144
100
AcDbEntity
  8
1
  6
Continuous
 62
     7
100
AcDbLine
 10
-17.25
 20
10.49999955699968
 30
0.0
 11
-17.25000000223372
 21
3.0004370810002
 31
0.0
  0
ARC
  5
155
330
144
100
AcDbEntity
  8
1
  6
Continuous
 62
     7
100
AcDbCircle
 10
-7.250000000964064
 20
3.000437080174378
 30
0.0
 40
10.00000000126869
100
AcDbArc
 50
179.9999999952677
 51
220.5383065388723
  0
ARC
  5
156
330
144
100
AcDbEntity
  8
1
  6
Continuous
 62
     7
100
AcDbCircle
 10
-5.25
 20
9.49999999999909
 30
0.0
 40
3.0
100
AcDbArc
 50
90.0
 51
180.0
  0
LINE
  5
157
330
144
100
AcDbEntity
  8
1
  6
Continuous
 62
     7
100
AcDbLine
 10
-8.250000000294676
 20
7.863615376999405
 30
0.0
 11
-8.25
 21
9.49999999999909
 31
0.0
  0
ARC
  5
158
330
144
100
AcDbEntity
  8
1
  6
Continuous
 62
     7
100
AcDbCircle
 10
-6.25
 20
10.49999999999909
 30
0.0
 40
11.0
100
AcDbArc
 50
89.99999999998046
 51
180.0000023074546
  0
ARC
  5
159
330
144
100
AcDbEntity
  8
1
  6
Continuous
 62
     7
100
AcDbCircle
 10
47.29921429853857
 20
-12.71956113569103
 30
0.0
 40
25.0
100
AcDbArc
 50
185.7105931421008
 51
222.1860000000015
  0
ARC
  5
15A
330
144
100
AcDbEntity
  8
1
  6
Continuous
 62
     7
100
AcDbCircle
 10
55.90477636346623
 20
-8.326301232138575
 30
0.0
 40
25.0000000000001
100
AcDbArc
 50
185.7105931287613
 51
222.1859999999981
  0
LINE
  5
15B
330
144
100
AcDbEntity
  8
1
  6
Continuous
 62
     7
100
AcDbLine
 10
20.10281729213966
 20
7.997518384210707
 30
0.0
 11
22.42328454348899
 21
-15.20715411321361
 31
0.0
  0
LINE
  5
15C
330
144
100
AcDbEntity
  8
1
  6
Continuous
 62
     7
100
AcDbLine
 10
31.0288466078382
 20
-10.81389420386949
 30
0.0
 11
28.78800310127189
 21
11.59454090912368
 31
0.0
  0
LINE
  5
15D
330
144
100
AcDbEntity
  8
1
  6
CENTER
 62
     4
100
AcDbLine
 10
0.0
 20
9.833686572434089
 30
0.0
 11
0.0
 21
-7.479938143394974
 31
0.0
  0
ARC
  5
15E
330
144
100
AcDbEntity
  8
1
  6
Continuous
 62
     7
100
AcDbCircle
 10
5.112591691828129
 20
-8.369999997972627
 30
0.0
 40
2.13000000272987
100
AcDbArc
 50
269.9999999507754
 51
47.99999982620451
  0
LINE
  5
15F
330
144
100
AcDbEntity
  8
1
  6
Continuous
 62
     7
100
AcDbLine
 10
0.3497158999998646
 20
-10.50000000000181
 30
0.0
 11
5.112591689998225
 21
-10.50000000070304
 31
0.0
  0
ARC
  5
160
330
144
100
AcDbEntity
  8
1
  6
Continuous
 62
     7
100
AcDbCircle
 10
15.12763131999963
 20
7.499999999997271
 30
0.0
 40
5.000000000000129
100
AcDbArc
 50
5.710590708805616
 51
89.99998796787677
  0
ARC
  5
161
330
144
100
AcDbEntity
  8
1
  6
Continuous
 62
     7
100
AcDbCircle
 10
17.84259401000235
 20
10.50000000115778
 30
0.0
 40
10.9999999988394
100
AcDbArc
 50
5.710593131481292
 51
89.99999072849645
  0
LINE
  5
162
330
144
100
AcDbEntity
  8
1
  6
Continuous
 62
     7
100
AcDbLine
 10
949.2304794002539
 20
205.3586999999695
 30
0.0
 11
1300.769520599629
 21
205.3586999999704
 31
0.0
  0
LINE
  5
163
330
144
100
AcDbEntity
  8
1
  6
Continuous
 62
     7
100
AcDbLine
 10
1276.440534620624
 20
193.8586999999704
 30
0.0
 11
973.5594653793178
 21
193.8586999999695
 31
0.0
  0
LINE
  5
164
330
144
100
AcDbEntity
  8
1
  6
Continuous
 62
     7
100
AcDbLine
 10
778.7749966366882
 20
29.5080500497022
 30
0.0
 11
930.7062617385254
 21
197.1471889140609
 31
0.0
  0
LINE
  5
165
330
144
100
AcDbEntity
  8
1
  6
Continuous
 62
     7
100
AcDbLine
 10
917.9868123938195
 20
169.2241667421083
 30
0.0
 11
787.380558701614
 21
25.11479014614701
 31
0.0
  0
LINE
  5
166
330
144
100
AcDbEntity
  8
1
  6
Continuous
 62
     7
100
AcDbLine
 10
721.2250033632772
 20
-29.50805004976359
 30
0.0
 11
569.29373826144
 21
-197.1471889141223
 31
0.0
  0
ARC
  5
167
330
144
100
AcDbEntity
  8
1
  6
Continuous
 62
     7
100
AcDbCircle
 10
550.7695205997115
 20
-180.3587000001718
 30
0.0
 40
24.99999999985869
100
AcDbArc
 50
270.0
 51
317.8139999999972
  0
LINE
  5
168
330
144
100
AcDbEntity
  8
1
  6
Continuous
 62
     7
100
AcDbLine
 10
582.0131876061459
 20
-169.2241667421697
 30
0.0
 11
712.6194412983495
 21
-25.1147901462084
 31
0.0
  0
ARC
  5
169
330
144
100
AcDbEntity
  8
1
  6
Continuous
 62
     7
100
AcDbCircle
 10
765.1276313199814
 20
-7.50000000003024
 30
0.0
 40
5.000000000000129
100
AcDbArc
 50
270.0000120321004
 51
354.2894092911814
  0
LINE
  5
16A
330
144
100
AcDbEntity
  8
1
  6
Continuous
 62
     7
100
AcDbLine
 10
767.8425957899817
 20
-21.50000000003024
 30
0.0
 11
743.7499999999817
 21
-21.50000000003024
 31
0.0
  0
ARC
  5
16B
330
144
100
AcDbEntity
  8
1
  6
Continuous
 62
     7
100
AcDbCircle
 10
749.6502840999819
 20
9.500001303892304
 30
0.0
 40
20.0000013039235
100
AcDbArc
 50
270.0
 51
319.4616906036628
  0
ARC
  5
16C
330
144
100
AcDbEntity
  8
1
  6
Continuous
 62
     7
100
AcDbCircle
 10
757.2500000009458
 20
3.000437080144138
 30
0.0
 40
10.00000000126869
100
AcDbArc
 50
319.4616934611355
 51
0.0000000047273729
  0
ARC
  5
16D
330
144
100
AcDbEntity
  8
1
  6
Continuous
 62
     7
100
AcDbCircle
 10
756.2499999999817
 20
10.49999999996884
 30
0.0
 40
11.0
100
AcDbArc
 50
359.9999976925404
 51
90.0
  0
ARC
  5
16E
330
144
100
AcDbEntity
  8
1
  6
Continuous
 62
     7
100
AcDbCircle
 10
743.7499999999817
 20
-10.50000000003024
 30
0.0
 40
11.0
100
AcDbArc
 50
179.9999976925404
 51
270.0
  0
ARC
  5
16F
330
144
100
AcDbEntity
  8
1
  6
Continuous
 62
     7
100
AcDbCircle
 10
702.7007857014432
 20
-12.71956113571764
 30
0.0
 40
25.0
100
AcDbArc
 50
317.8139999999972
 51
354.2894068578956
  0
ARC
  5
170
330
144
100
AcDbEntity
  8
1
  6
Continuous
 62
     7
100
AcDbCircle
 10
694.0952236365156
 20
-8.326301232164269
 30
0.0
 40
25.0000000000001
100
AcDbArc
 50
317.8140000000007
 51
354.2894068712353
  0
ARC
  5
171
330
144
100
AcDbEntity
  8
1
  6
Continuous
 62
     7
100
AcDbCircle
 10
732.157405989983
 20
10.50000000112936
 30
0.0
 40
10.9999999988394
100
AcDbArc
 50
90.00000927150358
 51
174.2894068685154
  0
LINE
  5
172
330
144
100
AcDbEntity
  8
1
  6
Continuous
 62
     7
100
AcDbLine
 10
718.9711533921472
 20
-10.813894203897
 30
0.0
 11
721.2119968999831
 21
11.59454090896883
 31
0.0
  0
LINE
  5
173
330
144
100
AcDbEntity
  8
1
  6
Continuous
 62
     7
100
AcDbLine
 10
756.5378398899829
 20
6.787101521969589
 30
0.0
 11
742.7426081799803
 21
-5.634180901030276
 31
0.0
  0
ARC
  5
174
330
144
100
AcDbEntity
  8
1
  6
Continuous
 62
     7
100
AcDbCircle
 10
750.3497158999817
 20
-9.500001303953695
 30
0.0
 40
20.0000013039235
100
AcDbArc
 50
90.0
 51
139.4616906036628
  0
LINE
  5
175
330
144
100
AcDbEntity
  8
1
  6
Continuous
 62
     7
100
AcDbLine
 10
729.8971827078458
 20
7.997518384183194
 30
0.0
 11
727.5767154564928
 21
-15.20715411324204
 31
0.0
  0
ARC
  5
176
330
144
100
AcDbEntity
  8
1
  6
Continuous
 62
     7
100
AcDbCircle
 10
755.2499999999818
 20
7.863615376969164
 30
0.0
 40
3.00000000029666
100
AcDbArc
 50
312.0000000186714
 51
0.0
  0
LINE
  5
177
330
144
100
AcDbEntity
  8
1
  6
CENTER
 62
     4
100
AcDbLine
 10
749.9999999999817
 20
9.833686572403166
 30
0.0
 11
749.9999999999817
 21
-7.479938143425897
 31
0.0
  0
LINE
  5
178
330
144
100
AcDbEntity
  8
1
  6
Continuous
 62
     7
100
AcDbLine
 10
744.7499999999818
 20
-12.50000000003024
 30
0.0
 11
765.1276323699804
 21
-12.50000000003024
 31
0.0
  0
LINE
  5
179
330
144
100
AcDbEntity
  8
1
  6
Continuous
 62
     7
100
AcDbLine
 10
743.4621601099824
 20
-6.78710152203098
 30
0.0
 11
757.257391819985
 21
5.634180900968885
 31
0.0
  0
LINE
  5
17A
330
144
100
AcDbEntity
  8
1
  6
Continuous
 62
     7
100
AcDbLine
 10
749.6502840999819
 20
-10.50000000003115
 30
0.0
 11
744.8874083099836
 21
-10.50000000003115
 31
0.0
  0
LINE
  5
17B
330
144
100
AcDbEntity
  8
1
  6
CENTER
 62
     4
100
AcDbLine
 10
739.8120366785588
 20
-0.0000000000309228
 30
0.0
 11
758.2224562605443
 21
-0.0000000000309228
 31
0.0
  0
ARC
  5
17C
330
144
100
AcDbEntity
  8
1
  6
Continuous
 62
     7
100
AcDbCircle
 10
744.7499999999818
 20
-9.50000000003024
 30
0.0
 40
3.0
100
AcDbArc
 50
180.0
 51
270.0
  0
LINE
  5
17D
330
144
100
AcDbEntity
  8
1
  6
Continuous
 62
     7
100
AcDbLine
 10
741.7499999996853
 20
-7.863615377030555
 30
0.0
 11
741.7499999999818
 21
-9.50000000003024
 31
0.0
  0
ARC
  5
17E
330
144
100
AcDbEntity
  8
1
  6
Continuous
 62
     7
100
AcDbCircle
 10
744.7499999999818
 20
-7.863615377030555
 30
0.0
 40
3.00000000029666
100
AcDbArc
 50
132.0000000186448
 51
180.0
  0
ARC
  5
17F
330
144
100
AcDbEntity
  8
1
  6
Continuous
 62
     7
100
AcDbCircle
 10
742.7499999990177
 20
-3.000437080205529
 30
0.0
 40
10.00000000126869
100
AcDbArc
 50
139.4616934611356
 51
180.0000000047273
  0
LINE
  5
180
330
144
100
AcDbEntity
  8
1
  6
Continuous
 62
     7
100
AcDbLine
 10
732.7499999999818
 20
-10.49999955702992
 30
0.0
 11
732.7499999999818
 21
-3.00043708103044
 31
0.0
  0
ARC
  5
181
330
144
100
AcDbEntity
  8
1
  6
Continuous
 62
     7
100
AcDbCircle
 10
744.8874083081573
 20
-8.369999998002867
 30
0.0
 40
2.13000000272987
100
AcDbArc
 50
132.000000173852
 51
270.0000000491269
  0
LINE
  5
182
330
144
100
AcDbEntity
  8
1
  6
Continuous
 62
     7
100
AcDbLine
 10
755.2499999999818
 20
12.49999999996885
 30
0.0
 11
734.8723676299851
 21
12.49999999996885
 31
0.0
  0
LINE
  5
183
330
144
100
AcDbEntity
  8
1
  6
Continuous
 62
     7
100
AcDbLine
 10
732.1574042099818
 20
21.49999999996885
 30
0.0
 11
756.2499999999817
 21
21.49999999996885
 31
0.0
  0
ARC
  5
184
330
144
100
AcDbEntity
  8
1
  6
Continuous
 62
     7
100
AcDbCircle
 10
734.8723686799822
 20
7.499999999968849
 30
0.0
 40
5.000000000000129
100
AcDbArc
 50
90.00001203208091
 51
174.2894092911798
  0
ARC
  5
185
330
144
100
AcDbEntity
  8
1
  6
Continuous
 62
     7
100
AcDbCircle
 10
755.1125916918081
 20
8.369999997941476
 30
0.0
 40
2.13000000272987
100
AcDbArc
 50
312.000000173852
 51
90.0000000491269
  0
LINE
  5
186
330
144
100
AcDbEntity
  8
1
  6
Continuous
 62
     7
100
AcDbLine
 10
750.3497158999817
 20
10.49999999996976
 30
0.0
 11
755.1125916899819
 21
10.49999999996976
 31
0.0
  0
ARC
  5
187
330
144
100
AcDbEntity
  8
1
  6
Continuous
 62
     7
100
AcDbCircle
 10
755.2499999999818
 20
9.499999999968849
 30
0.0
 40
3.0
100
AcDbArc
 50
0.0
 51
90.0
  0
LINE
  5
188
330
144
100
AcDbEntity
  8
1
  6
Continuous
 62
     7
100
AcDbLine
 10
758.2500000002801
 20
7.863615376969164
 30
0.0
 11
758.2499999999818
 21
9.499999999968849
 31
0.0
  0
ARC
  5
189
330
144
100
AcDbEntity
  8
1
  6
Continuous
 62
     7
100
AcDbCircle
 10
767.8425940099823
 20
-10.50000000119075
 30
0.0
 40
10.9999999988394
100
AcDbArc
 50
270.000009271497
 51
354.2894068685154
  0
LINE
  5
18A
330
144
100
AcDbEntity
  8
1
  6
Continuous
 62
     7
100
AcDbLine
 10
770.1028172921196
 20
-7.997518384244585
 30
0.0
 11
772.4232845434707
 21
15.20715411318064
 31
0.0
  0
LINE
  5
18B
330
144
100
AcDbEntity
  8
1
  6
Continuous
 62
     7
100
AcDbLine
 10
781.0288466078182
 20
10.81389420383561
 30
0.0
 11
778.7880030999822
 21
-11.59454090903022
 31
0.0
  0
LINE
  5
18C
330
144
100
AcDbEntity
  8
1
  6
Continuous
 62
     7
100
AcDbLine
 10
767.2499999999818
 20
10.49999955696853
 30
0.0
 11
767.2499999999818
 21
3.000437080969049
 31
0.0
  0
ARC
  5
18D
330
144
100
AcDbEntity
  8
1
  6
Continuous
 62
     7
100
AcDbCircle
 10
805.9047763634479
 20
8.326301232102878
 30
0.0
 40
25.0000000000001
100
AcDbArc
 50
137.8140000000006
 51
174.2894068712354
  0
ARC
  5
18E
330
144
100
AcDbEntity
  8
1
  6
Continuous
 62
     7
100
AcDbCircle
 10
797.2992142985222
 20
12.71956113565624
 30
0.0
 40
25.0
100
AcDbArc
 50
137.8139999999972
 51
174.2894068578956
  0
ARC
  5
18F
330
144
100
AcDbEntity
  8
1
  6
Continuous
 62
     7
100
AcDbCircle
 10
973.5594653793178
 20
118.8586999999695
 30
0.0
 40
75.0
100
AcDbArc
 50
90.0
 51
137.813999999996
  0
ARC
  5
190
330
144
100
AcDbEntity
  8
1
  6
Continuous
 62
     7
100
AcDbCircle
 10
949.2304794002539
 20
180.3587000001105
 30
0.0
 40
24.99999999985869
100
AcDbArc
 50
90.0
 51
137.8139999999972
  0
LINE
  5
191
330
144
100
AcDbEntity
  8
1
  6
Continuous
 62
     7
100
AcDbLine
 10
1471.225003363259
 20
29.50805004967492
 30
0.0
 11
1319.293738261465
 21
197.1471889140127
 31
0.0
  0
LINE
  5
192
330
144
100
AcDbEntity
  8
1
  6
Continuous
 62
     7
100
AcDbLine
 10
1332.013187606131
 20
169.2241667420992
 30
0.0
 11
1462.619441298333
 21
25.11479014612064
 31
0.0
  0
ARC
  5
193
330
144
100
AcDbEntity
  8
1
  6
Continuous
 62
     7
100
AcDbCircle
 10
1506.249999999963
 20
-10.50000000006025
 30
0.0
 40
11.0
100
AcDbArc
 50
269.9999999999902
 51
0.0000023074546619
  0
ARC
  5
194
330
144
100
AcDbEntity
  8
1
  6
Continuous
 62
     7
100
AcDbCircle
 10
1482.157405989963
 20
-10.50000000121894
 30
0.0
 40
10.9999999988394
100
AcDbArc
 50
185.7105931314812
 51
269.9999907284964
  0
LINE
  5
195
330
144
100
AcDbEntity
  8
1
  6
Continuous
 62
     7
100
AcDbLine
 10
1482.157404209962
 20
-21.50000000005843
 30
0.0
 11
1506.249999999961
 21
-21.50000000006025
 31
0.0
  0
LINE
  5
196
330
144
100
AcDbEntity
  8
1
  6
Continuous
 62
     7
100
AcDbLine
 10
1505.249999999963
 20
-12.50000000006025
 30
0.0
 11
1484.872367629963
 21
-12.50000000005843
 31
0.0
  0
LINE
  5
197
330
144
100
AcDbEntity
  8
1
  6
Continuous
 62
     7
100
AcDbLine
 10
1493.462160109964
 20
6.787101521940485
 30
0.0
 11
1507.257391819963
 21
-5.63418090106029
 31
0.0
  0
LINE
  5
198
330
144
100
AcDbEntity
  8
1
  6
Continuous
 62
     7
100
AcDbLine
 10
1499.650284099965
 20
10.49999999994065
 30
0.0
 11
1494.887408309965
 21
10.50000000064187
 31
0.0
  0
LINE
  5
199
330
144
100
AcDbEntity
  8
1
  6
CENTER
 62
     4
100
AcDbLine
 10
1489.81203667854
 20
-0.0000000000600267
 30
0.0
 11
1508.222456260526
 21
-0.0000000000600267
 31
0.0
  0
LINE
  5
19A
330
144
100
AcDbEntity
  8
1
  6
Continuous
 62
     7
100
AcDbLine
 10
1479.897182707824
 20
-7.99751838427187
 30
0.0
 11
1477.576715456476
 21
15.20715411315245
 31
0.0
  0
LINE
  5
19B
330
144
100
AcDbEntity
  8
1
  6
Continuous
 62
     7
100
AcDbLine
 10
1468.971153392127
 20
10.81389420380833
 30
0.0
 11
1471.211996898693
 21
-11.59454090918484
 31
0.0
  0
ARC
  5
19C
330
144
100
AcDbEntity
  8
1
  6
Continuous
 62
     7
100
AcDbCircle
 10
1484.872368679964
 20
-7.500000000058435
 30
0.0
 40
5.000000000000129
100
AcDbArc
 50
185.7105907088056
 51
269.9999879678767
  0
ARC
  5
19D
330
144
100
AcDbEntity
  8
1
  6
Continuous
 62
     7
100
AcDbCircle
 10
1452.700785701425
 20
12.71956113562987
 30
0.0
 40
25.0
100
AcDbArc
 50
5.710593142100823
 51
42.18600000000154
  0
ARC
  5
19E
330
144
100
AcDbEntity
  8
1
  6
Continuous
 62
     7
100
AcDbCircle
 10
1444.095223636499
 20
8.326301232077412
 30
0.0
 40
25.0000000000001
100
AcDbArc
 50
5.710593128761351
 51
42.18599999999813
  0
ARC
  5
19F
330
144
100
AcDbEntity
  8
1
  6
Continuous
 62
     7
100
AcDbCircle
 10
1494.887408308137
 20
8.369999997911463
 30
0.0
 40
2.13000000272987
100
AcDbArc
 50
89.99999995082424
 51
227.9999998261688
  0
ARC
  5
1A0
330
144
100
AcDbEntity
  8
1
  6
Continuous
 62
     7
100
AcDbCircle
 10
1499.650284099963
 20
-9.500001303983708
 30
0.0
 40
20.0000013039235
100
AcDbArc
 50
40.53830939633502
 51
89.99999999999349
  0
LINE
  5
1A1
330
144
100
AcDbEntity
  8
1
  6
CENTER
 62
     4
100
AcDbLine
 10
1499.999999999963
 20
-9.833686572494116
 30
0.0
 11
1499.999999999965
 21
7.479938143334948
 31
0.0
  0
ARC
  5
1A2
330
144
100
AcDbEntity
  8
1
  6
Continuous
 62
     7
100
AcDbCircle
 10
1507.250000000927
 20
-3.000437080235542
 30
0.0
 40
10.00000000126869
100
AcDbArc
 50
359.9999999952677
 51
40.53830653886439
  0
ARC
  5
1A3
330
144
100
AcDbEntity
  8
1
  6
Continuous
 62
     7
100
AcDbCircle
 10
1505.249999999963
 20
-9.500000000060254
 30
0.0
 40
3.0
100
AcDbArc
 50
270.0
 51
0.0
  0
LINE
  5
1A4
330
144
100
AcDbEntity
  8
1
  6
Continuous
 62
     7
100
AcDbLine
 10
1508.25000000026
 20
-7.863615377060568
 30
0.0
 11
1508.249999999963
 21
-9.500000000060254
 31
0.0
  0
ARC
  5
1A5
330
144
100
AcDbEntity
  8
1
  6
Continuous
 62
     7
100
AcDbCircle
 10
1505.249999999963
 20
-7.863615377059659
 30
0.0
 40
3.00000000029666
100
AcDbArc
 50
359.9999999999821
 51
47.99999998136891
  0
LINE
  5
1A6
330
144
100
AcDbEntity
  8
1
  6
Continuous
 62
     7
100
AcDbLine
 10
1517.249999999963
 20
-10.49999955706084
 30
0.0
 11
1517.250000002197
 21
-3.000437081061363
 31
0.0
  0
ARC
  5
1A7
330
144
100
AcDbEntity
  8
1
  6
Continuous
 62
     7
100
AcDbCircle
 10
1300.769520599629
 20
180.3586999999704
 30
0.0
 40
25.0
100
AcDbArc
 50
42.18599999999354
 51
90.0
  0
ARC
  5
1A8
330
144
100
AcDbEntity
  8
1
  6
Continuous
 62
     7
100
AcDbCircle
 10
1276.440534620624
 20
118.8586999999704
 30
0.0
 40
75.0
100
AcDbArc
 50
42.18599999999354
 51
90.0
  0
ENDBLK
  5
146
330
144
100
AcDbEntity
  8
0
100
AcDbBlockEnd
  0
ENDSEC
  0
SECTION
  2
ENTITIES
  0
INSERT
  5
1A9
330
1F
100
AcDbEntity
  8
0
100
AcDbBlockReference
  2
au16d
 10
451.0857607309199
 20
218.3026662178308
 30
0.0
  0
VIEWPORT
  5
6A
330
1B
100
AcDbEntity
 67
     1
  8
0
100
AcDbViewport
 10
144.2296600341796
 20
98.97533035278321
 30
0.0
 40
348.3547377345459
 41
222.1517806396484
 68
     1
 69
     1
 12
144.2296600341796
 22
98.97533035278321
 13
0.0
 23
0.0
 14
10.0
 24
10.0
 15
10.0
 25
10.0
 16
0.0
 26
0.0
 36
1.0
 17
0.0
 27
0.0
 37
0.0
 42
50.0
 43
0.0
 44
0.0
 45
222.1517806396484
 50
0.0
 51
0.0
 72
   100
 90
    32800
  1

281
     0
 71
     1
 74
     0
110
0.0
120
0.0
130
0.0
111
1.0
121
0.0
131
0.0
112
0.0
122
1.0
132
0.0
 79
     0
146
0.0
  0
VIEWPORT
  5
6C
330
1B
100
AcDbEntity
 67
     1
  8
0
100
AcDbViewport
 10
144.2296578884124
 20
98.97533607482911
 30
0.0
 40
230.7674526214599
 41
158.3605377197265
 68
     2
 69
     2
 12
471.9925402099685
 22
207.0118385025535
 13
0.0
 23
0.0
 14
10.0
 24
10.0
 15
10.0
 25
10.0
 16
0.0
 26
0.0
 36
1.0
 17
0.0
 27
0.0
 37
0.0
 42
50.0
 43
0.0
 44
0.0
 45
537.2024815614429
 50
0.0
 51
0.0
 72
   100
 90
    32864
  1

281
     0
 71
     1
 74
     0
110
330.2484756222961
120
239.5669321729576
130
0.0
111
1.0
121
0.0
131
0.0
112
0.0
122
1.0
132
0.0
 79
     0
146
0.0
  0
ENDSEC
  0
SECTION
  2
OBJECTS
  0
DICTIONARY
  5
C
330
0
100
AcDbDictionary
281
     1
  3
ACAD_GROUP
350
D
  3
ACAD_LAYOUT
350
1A
  3
ACAD_MLINESTYLE
350
17
  3
ACAD_PLOTSETTINGS
350
19
  3
ACAD_PLOTSTYLENAME
350
E
  3
AcDbVariableDictionary
350
44
  0
DICTIONARY
  5
2B
330
2
100
AcDbDictionary
280
     1
281
     1
  3
ACAD_LAYERFILTERS
360
2C
  0
DICTIONARY
  5
D
102
{ACAD_REACTORS
330
C
102
}
330
C
100
AcDbDictionary
281
     1
  0
DICTIONARY
  5
1A
102
{ACAD_REACTORS
330
C
102
}
330
C
100
AcDbDictionary
281
     1
  3
Layout1
350
1E
  3
Model
350
22
  0
DICTIONARY
  5
17
102
{ACAD_REACTORS
330
C
102
}
330
C
100
AcDbDictionary
281
     1
  3
Standard
350
18
  0
DICTIONARY
  5
19
102
{ACAD_REACTORS
330
C
102
}
330
C
100
AcDbDictionary
281
     1
  0
ACDBDICTIONARYWDFLT
  5
E
102
{ACAD_REACTORS
330
C
102
}
330
C
100
AcDbDictionary
281
     1
  3
Normal
350
F
100
AcDbDictionaryWithDefault
340
F
  0
DICTIONARY
  5
44
102
{ACAD_REACTORS
330
C
102
}
330
C
100
AcDbDictionary
281
     1
  3
DIMASSOC
350
46
  3
HIDETEXT
350
45
  0
DICTIONARY
  5
2C
102
{ACAD_REACTORS
330
2B
102
}
330
2B
100
AcDbDictionary
280
     1
281
     1
  3
GEO
360
2D
  3
RAK
360
2E
  3
RAK&GEO
360
2F
  0
LAYOUT
  5
1E
102
{ACAD_REACTORS
330
1A
102
}
330
1A
100
AcDbPlotSettings
  1

  2
\\AOBSRV1\FIN9
  4
A4
  6

 40
6.011333465576171
 41
4.233341693878173
 42
6.011322021484375
 43
4.23333740234375
 44
209.9733276367187
 45
296.9259948730469
 46
0.0
 47
0.0
 48
0.0
 49
0.0
140
0.0
141
0.0
142
1.0
143
1.0
 70
   688
 72
     1
 73
     1
 74
     5
  7

 75
    16
147
1.0
148
0.0
149
0.0
100
AcDbLayout
  1
Layout1
 70
     1
 71
     1
 10
-4.23333740234375
 20
-6.011333465576171
 11
292.6926574707031
 21
203.9619941711425
 12
0.0
 22
0.0
 32
0.0
 14
28.8459315776825
 24
19.79506721496582
 34
0.0
 15
259.6133841991424
 25
178.1556049346923
 35
0.0
146
0.0
 13
0.0
 23
0.0
 33
0.0
 16
1.0
 26
0.0
 36
0.0
 17
0.0
 27
1.0
 37
0.0
 76
     0
330
1B
331
6A
  0
LAYOUT
  5
22
102
{ACAD_REACTORS
330
1A
102
}
330
1A
100
AcDbPlotSettings
  1

  2
\\AOBSRV1\FIN9
  4

  6

 40
0.0
 41
0.0
 42
0.0
 43
0.0
 44
0.0
 45
0.0
 46
0.0
 47
0.0
 48
0.0
 49
0.0
140
0.0
141
0.0
142
1.0
143
1.0
 70
  1712
 72
     0
 73
     0
 74
     0
  7

 75
     0
147
1.0
148
0.0
149
0.0
100
AcDbLayout
  1
Model
 70
     1
 71
     0
 10
0.0
 20
0.0
 11
12.0
 21
9.0
 12
0.0
 22
0.0
 32
0.0
 14
0.0
 24
0.0
 34
0.0
 15
0.0
 25
0.0
 35
0.0
146
0.0
 13
0.0
 23
0.0
 33
0.0
 16
1.0
 26
0.0
 36
0.0
 17
0.0
 27
1.0
 37
0.0
 76
     0
330
1F
  0
MLINESTYLE
  5
18
102
{ACAD_REACTORS
330
17
102
}
330
17
100
AcDbMlineStyle
  2
STANDARD
 70
     0
  3

 62
   256
 51
90.0
 52
90.0
 71
     2
 49
0.5
 62
   256
  6
BYLAYER
 49
-0.5
 62
   256
  6
BYLAYER
  0
ACDBPLACEHOLDER
  5
F
102
{ACAD_REACTORS
330
E
102
}
330
E
  0
DICTIONARYVAR
  5
46
102
{ACAD_REACTORS
330
44
102
}
330
44
100
DictionaryVariables
280
     0
  1
2
  0
DICTIONARYVAR
  5
45
102
{ACAD_REACTORS
330
44
102
}
330
44
100
DictionaryVariables
280
     0
  1
1
  0
XRECORD
  5
2D
102
{ACAD_REACTORS
330
2C
102
}
330
2C
100
AcDbXrecord
280
     1
  1
GEO
  1
GEO-*
  1
*
  1
*
 70
     0
  1
*
  1
*
  0
XRECORD
  5
2E
102
{ACAD_REACTORS
330
2C
102
}
330
2C
100
AcDbXrecord
280
     1
  1
RAK
  1
RAK-*
  1
*
  1
*
 70
     0
  1
*
  1
*
  0
XRECORD
  5
2F
102
{ACAD_REACTORS
330
2C
102
}
330
2C
100
AcDbXrecord
280
     1
  1
RAK&GEO
  1
RAK-*,GEO-*
  1
*
  1
*
 70
     0
  1
*
  1
*
  0
ENDSEC
  0
EOF
