  0
SECTION
  2
HEADER
  9
$ACADVER
  1
AC1015
  9
$ACADMAINTVER
 70
    14
  9
$DWGCODEPAGE
  3
ANSI_1252
  9
$INSBASE
 10
0.0
 20
0.0
 30
0.0
  9
$EXTMIN
 10
929.5885520203741
 20
-1131.455685474147
 30
-0.0000000003672348
  9
$EXTMAX
 10
2607.088552020374
 20
-774.1366879548483
 30
-0.0000000003672348
  9
$LIMMIN
 10
0.0
 20
0.0
  9
$LIMMAX
 10
420.0
 20
297.0
  9
$ORTHOMODE
 70
     0
  9
$REGENMODE
 70
     1
  9
$FILLMODE
 70
     1
  9
$QTEXTMODE
 70
     0
  9
$MIRRTEXT
 70
     1
  9
$LTSCALE
 40
1.0
  9
$ATTMODE
 70
     1
  9
$TEXTSIZE
 40
2.5
  9
$TRACEWID
 40
1.0
  9
$TEXTSTYLE
  7
Standard
  9
$CLAYER
  8
PAZ5460
  9
$CELTYPE
  6
ByLayer
  9
$CECOLOR
 62
   256
  9
$CELTSCALE
 40
1.0
  9
$DISPSILH
 70
     0
  9
$DIMSCALE
 40
1.0
  9
$DIMASZ
 40
2.5
  9
$DIMEXO
 40
0.625
  9
$DIMDLI
 40
3.75
  9
$DIMRND
 40
0.0
  9
$DIMDLE
 40
0.0
  9
$DIMEXE
 40
1.25
  9
$DIMTP
 40
0.0
  9
$DIMTM
 40
0.0
  9
$DIMTXT
 40
2.5
  9
$DIMCEN
 40
2.5
  9
$DIMTSZ
 40
0.0
  9
$DIMTOL
 70
     0
  9
$DIMLIM
 70
     0
  9
$DIMTIH
 70
     0
  9
$DIMTOH
 70
     0
  9
$DIMSE1
 70
     0
  9
$DIMSE2
 70
     0
  9
$DIMTAD
 70
     1
  9
$DIMZIN
 70
     8
  9
$DIMBLK
  1

  9
$DIMASO
 70
     1
  9
$DIMSHO
 70
     1
  9
$DIMPOST
  1

  9
$DIMAPOST
  1

  9
$DIMALT
 70
     0
  9
$DIMALTD
 70
     3
  9
$DIMALTF
 40
0.03937007874016
  9
$DIMLFAC
 40
1.0
  9
$DIMTOFL
 70
     1
  9
$DIMTVP
 40
0.0
  9
$DIMTIX
 70
     0
  9
$DIMSOXD
 70
     0
  9
$DIMSAH
 70
     0
  9
$DIMBLK1
  1

  9
$DIMBLK2
  1

  9
$DIMSTYLE
  2
ISO-25
  9
$DIMCLRD
 70
     0
  9
$DIMCLRE
 70
     0
  9
$DIMCLRT
 70
     0
  9
$DIMTFAC
 40
1.0
  9
$DIMGAP
 40
0.625
  9
$DIMJUST
 70
     0
  9
$DIMSD1
 70
     0
  9
$DIMSD2
 70
     0
  9
$DIMTOLJ
 70
     0
  9
$DIMTZIN
 70
     8
  9
$DIMALTZ
 70
     0
  9
$DIMALTTZ
 70
     0
  9
$DIMUPT
 70
     0
  9
$DIMDEC
 70
     2
  9
$DIMTDEC
 70
     2
  9
$DIMALTU
 70
     2
  9
$DIMALTTD
 70
     3
  9
$DIMTXSTY
  7
Standard
  9
$DIMAUNIT
 70
     0
  9
$DIMADEC
 70
     0
  9
$DIMALTRND
 40
0.0
  9
$DIMAZIN
 70
     0
  9
$DIMDSEP
 70
    44
  9
$DIMATFIT
 70
     3
  9
$DIMFRAC
 70
     0
  9
$DIMLDRBLK
  1

  9
$DIMLUNIT
 70
     2
  9
$DIMLWD
 70
    -2
  9
$DIMLWE
 70
    -2
  9
$DIMTMOVE
 70
     0
  9
$LUNITS
 70
     2
  9
$LUPREC
 70
     4
  9
$SKETCHINC
 40
1.0
  9
$FILLETRAD
 40
10.0
  9
$AUNITS
 70
     0
  9
$AUPREC
 70
     0
  9
$MENU
  1
.
  9
$ELEVATION
 40
0.0
  9
$PELEVATION
 40
0.0
  9
$THICKNESS
 40
0.0
  9
$LIMCHECK
 70
     0
  9
$CHAMFERA
 40
10.0
  9
$CHAMFERB
 40
10.0
  9
$CHAMFERC
 40
20.0
  9
$CHAMFERD
 40
0.0
  9
$SKPOLY
 70
     0
  9
$TDCREATE
 40
2452984.401453715
  9
$TDUCREATE
 40
2452984.359787048
  9
$TDUPDATE
 40
2452989.717711123
  9
$TDUUPDATE
 40
2452989.676044456
  9
$TDINDWG
 40
0.0462062731
  9
$TDUSRTIMER
 40
0.0462060880
  9
$USRTIMER
 70
     1
  9
$ANGBASE
 50
0.0
  9
$ANGDIR
 70
     0
  9
$PDMODE
 70
     0
  9
$PDSIZE
 40
0.0
  9
$PLINEWID
 40
0.0
  9
$SPLFRAME
 70
     0
  9
$SPLINETYPE
 70
     6
  9
$SPLINESEGS
 70
     8
  9
$HANDSEED
  5
B1F
  9
$SURFTAB1
 70
     6
  9
$SURFTAB2
 70
     6
  9
$SURFTYPE
 70
     6
  9
$SURFU
 70
     6
  9
$SURFV
 70
     6
  9
$UCSBASE
  2

  9
$UCSNAME
  2

  9
$UCSORG
 10
948.8385520203742
 20
-1105.121186714498
 30
-0.0000000003672348
  9
$UCSXDIR
 10
1.0
 20
0.0
 30
0.0
  9
$UCSYDIR
 10
0.0
 20
1.0
 30
0.0
  9
$UCSORTHOREF
  2

  9
$UCSORTHOVIEW
 70
     0
  9
$UCSORGTOP
 10
0.0
 20
0.0
 30
0.0
  9
$UCSORGBOTTOM
 10
0.0
 20
0.0
 30
0.0
  9
$UCSORGLEFT
 10
0.0
 20
0.0
 30
0.0
  9
$UCSORGRIGHT
 10
0.0
 20
0.0
 30
0.0
  9
$UCSORGFRONT
 10
0.0
 20
0.0
 30
0.0
  9
$UCSORGBACK
 10
0.0
 20
0.0
 30
0.0
  9
$PUCSBASE
  2

  9
$PUCSNAME
  2

  9
$PUCSORG
 10
0.0
 20
0.0
 30
0.0
  9
$PUCSXDIR
 10
1.0
 20
0.0
 30
0.0
  9
$PUCSYDIR
 10
0.0
 20
1.0
 30
0.0
  9
$PUCSORTHOREF
  2

  9
$PUCSORTHOVIEW
 70
     0
  9
$PUCSORGTOP
 10
0.0
 20
0.0
 30
0.0
  9
$PUCSORGBOTTOM
 10
0.0
 20
0.0
 30
0.0
  9
$PUCSORGLEFT
 10
0.0
 20
0.0
 30
0.0
  9
$PUCSORGRIGHT
 10
0.0
 20
0.0
 30
0.0
  9
$PUCSORGFRONT
 10
0.0
 20
0.0
 30
0.0
  9
$PUCSORGBACK
 10
0.0
 20
0.0
 30
0.0
  9
$USERI1
 70
     0
  9
$USERI2
 70
     0
  9
$USERI3
 70
     0
  9
$USERI4
 70
     0
  9
$USERI5
 70
     0
  9
$USERR1
 40
0.0
  9
$USERR2
 40
0.0
  9
$USERR3
 40
0.0
  9
$USERR4
 40
0.0
  9
$USERR5
 40
0.0
  9
$WORLDVIEW
 70
     1
  9
$SHADEDGE
 70
     3
  9
$SHADEDIF
 70
    70
  9
$TILEMODE
 70
     1
  9
$MAXACTVP
 70
    64
  9
$PINSBASE
 10
0.0
 20
0.0
 30
0.0
  9
$PLIMCHECK
 70
     0
  9
$PEXTMIN
 10
28.8459315776825
 20
19.79506721496582
 30
0.0
  9
$PEXTMAX
 10
259.6133841991424
 20
178.1556049346923
 30
0.0
  9
$PLIMMIN
 10
-4.23333740234375
 20
-6.011333465576171
  9
$PLIMMAX
 10
292.6926574707031
 20
203.9619941711425
  9
$UNITMODE
 70
     0
  9
$VISRETAIN
 70
     1
  9
$PLINEGEN
 70
     0
  9
$PSLTSCALE
 70
     1
  9
$TREEDEPTH
 70
  3020
  9
$CMLSTYLE
  2
Standard
  9
$CMLJUST
 70
     0
  9
$CMLSCALE
 40
20.0
  9
$PROXYGRAPHICS
 70
     1
  9
$MEASUREMENT
 70
     1
  9
$CELWEIGHT
370
    -1
  9
$ENDCAPS
280
     0
  9
$JOINSTYLE
280
     0
  9
$LWDISPLAY
290
     0
  9
$INSUNITS
 70
     4
  9
$HYPERLINKBASE
  1

  9
$STYLESHEET
  1

  9
$XEDIT
290
     1
  9
$CEPSNTYPE
380
     0
  9
$PSTYLEMODE
290
     1
  9
$FINGERPRINTGUID
  2
{1F0C9108-7A24-43FE-92C0-F61D6143634A}
  9
$VERSIONGUID
  2
{95AC5869-79F7-46DE-9896-B262F7B9F9C9}
  9
$EXTNAMES
290
     1
  9
$PSVPSCALE
 40
0.0
  9
$OLESTARTUP
290
     0
  0
ENDSEC
  0
SECTION
  2
CLASSES
  0
CLASS
  1
ACDBDICTIONARYWDFLT
  2
AcDbDictionaryWithDefault
  3
AutoCAD 2000
 90
        0
280
     0
281
     0
  0
CLASS
  1
ACDBPLACEHOLDER
  2
AcDbPlaceHolder
  3
AutoCAD 2000
 90
        0
280
     0
281
     0
  0
CLASS
  1
LAYOUT
  2
AcDbLayout
  3
AutoCAD 2000
 90
        0
280
     0
281
     0
  0
CLASS
  1
DICTIONARYVAR
  2
AcDbDictionaryVar
  3
AutoCAD 2000
 90
        0
280
     0
281
     0
  0
ENDSEC
  0
SECTION
  2
TABLES
  0
TABLE
  2
VPORT
  5
8
330
0
100
AcDbSymbolTable
 70
     2
  0
VPORT
  5
B1E
330
8
100
AcDbSymbolTableRecord
100
AcDbViewportTableRecord
  2
*Active
 70
     0
 10
0.0
 20
0.0
 11
1.0
 21
1.0
 12
1772.621147265092
 22
-952.7679430635092
 13
0.0
 23
0.0
 14
10.0
 24
10.0
 15
10.0
 25
10.0
 16
0.0
 26
0.0
 36
1.0
 17
0.0
 27
0.0
 37
0.0
 40
1130.033085079876
 41
1.5
 42
50.0
 43
0.0
 44
0.0
 50
0.0
 51
0.0
 71
     0
 72
   100
 73
     1
 74
     3
 75
     0
 76
     0
 77
     0
 78
     0
281
     0
 65
     1
110
948.8385520203742
120
-1105.121186714498
130
-0.0000000003672348
111
1.0
121
0.0
131
0.0
112
0.0
122
1.0
132
0.0
 79
     0
146
0.0
  0
ENDTAB
  0
TABLE
  2
LTYPE
  5
5
330
0
100
AcDbSymbolTable
 70
     1
  0
LTYPE
  5
14
330
5
100
AcDbSymbolTableRecord
100
AcDbLinetypeTableRecord
  2
ByBlock
 70
     0
  3

 72
    65
 73
     0
 40
0.0
  0
LTYPE
  5
15
330
5
100
AcDbSymbolTableRecord
100
AcDbLinetypeTableRecord
  2
ByLayer
 70
     0
  3

 72
    65
 73
     0
 40
0.0
  0
LTYPE
  5
16
330
5
100
AcDbSymbolTableRecord
100
AcDbLinetypeTableRecord
  2
Continuous
 70
     0
  3
Solid line
 72
    65
 73
     0
 40
0.0
  0
ENDTAB
  0
TABLE
  2
LAYER
  5
2
102
{ACAD_XDICTIONARY
360
2B
102
}
330
0
100
AcDbSymbolTable
 70
     2
  0
LAYER
  5
10
330
2
100
AcDbSymbolTableRecord
100
AcDbLayerTableRecord
  2
0
 70
     0
 62
     7
  6
Continuous
370
    -3
390
F
  0
LAYER
  5
B3
330
2
100
AcDbSymbolTableRecord
100
AcDbLayerTableRecord
  2
PAZ5460
 70
     0
 62
     7
  6
Continuous
370
    -3
390
F
  0
ENDTAB
  0
TABLE
  2
STYLE
  5
3
330
0
100
AcDbSymbolTable
 70
     1
  0
STYLE
  5
11
330
3
100
AcDbSymbolTableRecord
100
AcDbTextStyleTableRecord
  2
Standard
 70
     0
 40
0.0
 41
1.0
 50
0.0
 71
     0
 42
2.5
  3
txt
  4

  0
ENDTAB
  0
TABLE
  2
VIEW
  5
6
330
0
100
AcDbSymbolTable
 70
     0
  0
ENDTAB
  0
TABLE
  2
UCS
  5
7
330
0
100
AcDbSymbolTable
 70
     0
  0
ENDTAB
  0
TABLE
  2
APPID
  5
9
330
0
100
AcDbSymbolTable
 70
     1
  0
APPID
  5
12
330
9
100
AcDbSymbolTableRecord
100
AcDbRegAppTableRecord
  2
ACAD
 70
     0
  0
ENDTAB
  0
TABLE
  2
DIMSTYLE
  5
A
330
0
100
AcDbSymbolTable
 70
     1
100
AcDbDimStyleTable
 71
     0
  0
DIMSTYLE
105
27
330
A
100
AcDbSymbolTableRecord
100
AcDbDimStyleTableRecord
  2
ISO-25
 70
     0
 41
2.5
 42
0.625
 43
3.75
 44
1.25
 73
     0
 74
     0
 77
     1
 78
     8
140
2.5
141
2.5
143
0.03937007874016
147
0.625
171
     3
172
     1
271
     2
272
     2
274
     3
278
    44
283
     0
284
     8
340
11
  0
ENDTAB
  0
TABLE
  2
BLOCK_RECORD
  5
1
330
0
100
AcDbSymbolTable
 70
     1
  0
BLOCK_RECORD
  5
1F
330
1
100
AcDbSymbolTableRecord
100
AcDbBlockTableRecord
  2
*Model_Space
340
22
  0
BLOCK_RECORD
  5
1B
330
1
100
AcDbSymbolTableRecord
100
AcDbBlockTableRecord
  2
*Paper_Space
340
1E
  0
BLOCK_RECORD
  5
AC4
330
1
100
AcDbSymbolTableRecord
100
AcDbBlockTableRecord
  2
paz5460
340
0
310
2800000020000000200000000100080000000000000400000000000000000000000000000000000000000000000080000080000000808000800000008000800080800000C0C0C000C0DCC000F0CAA6000020400000206000002080000020A0000020C0000020E00000400000004020000040400000406000004080000040A0
310
000040C0000040E00000600000006020000060400000606000006080000060A0000060C0000060E00000800000008020000080400000806000008080000080A0000080C0000080E00000A0000000A0200000A0400000A0600000A0800000A0A00000A0C00000A0E00000C0000000C0200000C0400000C0600000C0800000C0
310
A00000C0C00000C0E00000E0000000E0200000E0400000E0600000E0800000E0A00000E0C00000E0E00040000000400020004000400040006000400080004000A0004000C0004000E00040200000402020004020400040206000402080004020A0004020C0004020E000404000004040200040404000404060004040800040
310
40A0004040C0004040E00040600000406020004060400040606000406080004060A0004060C0004060E00040800000408020004080400040806000408080004080A0004080C0004080E00040A0000040A0200040A0400040A0600040A0800040A0A00040A0C00040A0E00040C0000040C0200040C0400040C0600040C08000
310
40C0A00040C0C00040C0E00040E0000040E0200040E0400040E0600040E0800040E0A00040E0C00040E0E00080000000800020008000400080006000800080008000A0008000C0008000E00080200000802020008020400080206000802080008020A0008020C0008020E00080400000804020008040400080406000804080
310
008040A0008040C0008040E00080600000806020008060400080606000806080008060A0008060C0008060E00080800000808020008080400080806000808080008080A0008080C0008080E00080A0000080A0200080A0400080A0600080A0800080A0A00080A0C00080A0E00080C0000080C0200080C0400080C0600080C0
310
800080C0A00080C0C00080C0E00080E0000080E0200080E0400080E0600080E0800080E0A00080E0C00080E0E000C0000000C0002000C0004000C0006000C0008000C000A000C000C000C000E000C0200000C0202000C0204000C0206000C0208000C020A000C020C000C020E000C0400000C0402000C0404000C0406000C0
310
408000C040A000C040C000C040E000C0600000C0602000C0604000C0606000C0608000C060A000C060C000C060E000C0800000C0802000C0804000C0806000C0808000C080A000C080C000C080E000C0A00000C0A02000C0A04000C0A06000C0A08000C0A0A000C0A0C000C0A0E000C0C00000C0C02000C0C04000C0C06000
310
C0C08000C0C0A000F0FBFF00A4A0A000808080000000FF0000FF000000FFFF00FF000000FF00FF00FFFF0000FFFFFF0000000000000000000000000000000000000000000000000000000000000000000000000000000000000000000000000000000000000000000000000000000000000000000000000000000000000000
310
00000000000000000000000000000000000000000000000000000000000000000000000000000000000000000000000000000000000000000000000000000000000000000000000000000000000000000000000000000000000000000000000000000000000000000000000000000000000000000000000000000000000000
310
00000000000000000000000000000000000000000000000000000000000000000000000000000000000000000000000000000000000000000000000000000000000000000000000000000000000000000000000000000000000000000000000000000000000000000000000000000000000000000000000000000000000000
310
000000000000000000000000000000000000000000000000000000000000000000000000000000000000000000000000000000000000000000000000000000000000000000000000000000000000000000000000FFFEFFFFFFFF000000000000000000000000000000000000FFFFFFFFFFFF0000000000000000FF00000000
310
000000000000000000000000FF000000000000000000000000000000FF00000000000000000000000000FFFF0000000000000000000000000000000000FF0000000000000000000000FF0000000000000000000000000000000000000000FF000000000000000000FF00000000000000000000000000000000000000000000
310
FFFFFFFFFFFFFFFFFF00000000000000000000000000000000000000000000000000000000000000000000000000000000000000000000000000000000000000000000000000000000000000000000000000000000000000000000000000000000000000000000000000000000000000000000000000000000000000000000
310
00000000000000000000000000000000000000000000000000000000000000000000000000000000000000000000000000000000000000000000000000000000000000000000000000000000000000000000000000000000000000000000000000000000000000000000000000000000000000000000000000000000000000
310
00000000000000000000000000000000000000000000000000000000000000000000000000000000000000000000000000000000000000000000000000000000000000000000000000000000000000000000000000000000000000000000000000000000000000000000000000000000000000000000000000000000000000
310
0000000000000000000000000000000000000000000000000000000000000000000000000000000000000000000000000000000000000000
102
{BLKREFS
331
B05
102
}
1001
ACAD
1000
DesignCenter Data
1002
{
1070
     1
1070
     4
1002
}
  0
ENDTAB
  0
ENDSEC
  0
SECTION
  2
BLOCKS
  0
BLOCK
  5
20
330
1F
100
AcDbEntity
  8
0
100
AcDbBlockBegin
  2
*Model_Space
 70
     0
 10
0.0
 20
0.0
 30
0.0
  3
*Model_Space
  1

  0
ENDBLK
  5
21
330
1F
100
AcDbEntity
  8
0
100
AcDbBlockEnd
  0
BLOCK
  5
1C
330
1B
100
AcDbEntity
 67
     1
  8
0
100
AcDbBlockBegin
  2
*Paper_Space
 70
     0
 10
0.0
 20
0.0
 30
0.0
  3
*Paper_Space
  1

  0
ENDBLK
  5
1D
330
1B
100
AcDbEntity
 67
     1
  8
0
100
AcDbBlockEnd
  0
BLOCK
  5
AC5
330
AC4
100
AcDbEntity
  8
0
100
AcDbBlockBegin
  2
paz5460
 70
     0
 10
0.0
 20
0.0
 30
0.0
  3
paz5460
  1

  0
LINE
  5
AC7
330
AC4
100
AcDbEntity
  8
0
 62
     7
100
AcDbLine
 10
1583.646586144022
 20
-7.80295302309787
 30
0.0
 11
1585.904743831371
 21
1.282770282623459
 31
0.0
  0
ARC
  5
AC8
330
AC4
100
AcDbEntity
  8
0
 62
     7
100
AcDbCircle
 10
1571.564170278769
 20
-4.800000000000181
 30
0.0
 40
12.45
100
AcDbArc
 50
270.0
 51
346.042562093309
  0
ARC
  5
AC9
330
AC4
100
AcDbEntity
  8
0
 62
     7
100
AcDbCircle
 10
1614.0
 20
-5.700000000000727
 30
0.0
 40
28.94999999999999
100
AcDbArc
 50
90.0
 51
166.0425620933233
  0
LINE
  5
ACA
330
AC4
100
AcDbEntity
  8
0
 62
     7
100
AcDbLine
 10
1400.30375008122
 20
-17.25
 30
0.0
 11
1571.564170278769
 21
-17.25
 31
0.0
  0
ARC
  5
ACB
330
AC4
100
AcDbEntity
  8
0
 62
     7
100
AcDbCircle
 10
1400.30375008122
 20
2.75
 30
0.0
 40
20.0
100
AcDbArc
 50
225.0045995045544
 51
270.0
  0
ARC
  5
ACC
330
AC4
100
AcDbEntity
  8
0
 62
     7
100
AcDbCircle
 10
1639.0
 20
4.0
 30
0.0
 40
19.25
100
AcDbArc
 50
254.9999999999803
 51
90.0
  0
LINE
  5
ACD
330
AC4
100
AcDbEntity
  8
0
 62
     7
100
AcDbLine
 10
1054.869295605967
 20
319.8469974315221
 30
0.0
 11
1386.162749784183
 21
-11.39327085928925
 31
0.0
  0
LINE
  5
ACE
330
AC4
100
AcDbEntity
  8
0
 62
     7
100
AcDbLine
 10
1634.01773338177
 20
-14.59407215606461
 30
0.0
 11
1610.835513550831
 21
-8.382415073604533
 31
0.0
  0
LINE
  5
ACF
330
AC4
100
AcDbEntity
  8
0
 62
     7
100
AcDbLine
 10
1612.388427821453
 20
-2.586860115869967
 30
0.0
 11
1610.835513550831
 21
-8.382415073604533
 31
0.0
  0
LINE
  5
AD0
330
AC4
100
AcDbEntity
  8
0
 62
     7
100
AcDbLine
 10
1635.570647652377
 20
-8.798517198330046
 30
0.0
 11
1612.388427821453
 21
-2.586860115869967
 31
0.0
  0
ARC
  5
AD1
330
AC4
100
AcDbEntity
  8
0
 62
     7
100
AcDbCircle
 10
1639.0
 20
4.0
 30
0.0
 40
13.25
100
AcDbArc
 50
254.9999999999392
 51
90.0
  0
ARC
  5
AD2
330
AC4
100
AcDbEntity
  8
0
 62
     7
100
AcDbCircle
 10
1614.0
 20
-5.700000000000727
 30
0.0
 40
22.94999999999999
100
AcDbArc
 50
90.0
 51
166.0425620933233
  0
LINE
  5
AD3
330
AC4
100
AcDbEntity
  8
0
 62
     7
100
AcDbLine
 10
1589.469437163424
 20
-9.250159299289407
 30
0.0
 11
1591.727594850774
 21
-0.1644359935671673
 31
0.0
  0
ARC
  5
AD4
330
AC4
100
AcDbEntity
  8
0
 62
     7
100
AcDbCircle
 10
1571.564170278769
 20
-4.800000000000181
 30
0.0
 40
18.44999999999999
100
AcDbArc
 50
270.0
 51
346.042562093309
  0
LINE
  5
AD5
330
AC4
100
AcDbEntity
  8
0
 62
     7
100
AcDbLine
 10
1400.30375008122
 20
-23.25
 30
0.0
 11
1571.564170278769
 21
-23.25
 31
0.0
  0
ARC
  5
AD6
330
AC4
100
AcDbEntity
  8
0
 62
     7
100
AcDbCircle
 10
1400.30375008122
 20
2.75
 30
0.0
 40
26.0
100
AcDbArc
 50
225.0045995045406
 51
270.0
  0
LINE
  5
AD7
330
AC4
100
AcDbEntity
  8
0
 62
     7
100
AcDbLine
 10
1050.626995516853
 20
315.6040161737355
 30
0.0
 11
1381.920449695069
 21
-15.63625211707585
 31
0.0
  0
LINE
  5
AD8
330
AC4
100
AcDbEntity
  8
0
 62
     7
100
AcDbLine
 10
247.8692956059676
 20
-15.1969974315225
 30
0.0
 11
579.1627497841837
 21
316.0432708592888
 31
0.0
  0
ARC
  5
AD9
330
AC4
100
AcDbEntity
  8
0
 62
     7
100
AcDbCircle
 10
228.4254201975418
 20
4.25
 30
0.0
 40
27.5
100
AcDbArc
 50
270.0
 51
314.9954004954455
  0
LINE
  5
ADA
330
AC4
100
AcDbEntity
  8
0
 62
     7
100
AcDbLine
 10
0.0
 20
-23.25
 30
0.0
 11
228.4254201975418
 21
-23.25
 31
0.0
  0
ARC
  5
ADB
330
AC4
100
AcDbEntity
  8
0
 62
     7
100
AcDbCircle
 10
0.0
 20
-4.0
 30
0.0
 40
19.25
100
AcDbArc
 50
75.00000000002443
 51
270.0
  0
LINE
  5
ADC
330
AC4
100
AcDbEntity
  8
0
 62
     7
100
AcDbLine
 10
4.982266618215362
 20
14.59407215606461
 30
0.0
 11
28.16448644915363
 21
8.382415073603624
 31
0.0
  0
LINE
  5
ADD
330
AC4
100
AcDbEntity
  8
0
 62
     7
100
AcDbLine
 10
26.61157217854634
 20
2.586860115869967
 30
0.0
 11
28.16448644915363
 21
8.382415073603624
 31
0.0
  0
LINE
  5
ADE
330
AC4
100
AcDbEntity
  8
0
 62
     7
100
AcDbLine
 10
3.429352347608073
 20
8.798517198330046
 30
0.0
 11
26.61157217854634
 21
2.586860115869967
 31
0.0
  0
ARC
  5
ADF
330
AC4
100
AcDbEntity
  8
0
 62
     7
100
AcDbCircle
 10
0.0
 20
-4.0
 30
0.0
 40
13.25
100
AcDbArc
 50
74.99999999999926
 51
270.0
  0
LINE
  5
AE0
330
AC4
100
AcDbEntity
  8
0
 62
     7
100
AcDbLine
 10
0.0
 20
-17.25
 30
0.0
 11
228.4254201975418
 21
-17.25
 31
0.0
  0
ARC
  5
AE1
330
AC4
100
AcDbEntity
  8
0
 62
     7
100
AcDbCircle
 10
228.4254201975418
 20
4.25
 30
0.0
 40
21.49999999999999
100
AcDbArc
 50
270.0
 51
314.9954004954455
  0
LINE
  5
AE2
330
AC4
100
AcDbEntity
  8
0
 62
     7
100
AcDbLine
 10
243.6269955168536
 20
-10.9540161737359
 30
0.0
 11
574.9204496950697
 21
320.2862521170755
 31
0.0
  0
LINE
  5
AE3
330
AC4
100
AcDbEntity
  8
0
 62
     4
100
AcDbLine
 10
1604.260854148946
 20
0.0
 30
0.0
 11
1623.739145851039
 21
0.0
 31
0.0
  0
LINE
  5
AE4
330
AC4
100
AcDbEntity
  8
0
 62
     4
100
AcDbLine
 10
1614.0
 20
10.0
 30
0.0
 11
1614.0
 21
-10.0
 31
0.0
  0
LINE
  5
AE5
330
AC4
100
AcDbEntity
  8
0
 62
     4
100
AcDbLine
 10
-10.0
 20
0.0
 30
0.0
 11
10.0
 21
0.0
 31
0.0
  0
LINE
  5
AE6
330
AC4
100
AcDbEntity
  8
0
 62
     4
100
AcDbLine
 10
0.0
 20
-9.629627533198799
 30
0.0
 11
0.0
 21
9.629627533198799
 31
0.0
  0
LINE
  5
AE7
330
AC4
100
AcDbEntity
  8
0
 62
     7
100
AcDbLine
 10
593.3037500812206
 20
321.8999999999996
 30
0.0
 11
764.5641702787688
 21
321.8999999999996
 31
0.0
  0
LINE
  5
AE8
330
AC4
100
AcDbEntity
  8
0
 62
     7
100
AcDbLine
 10
593.3037500812206
 20
327.8999999999996
 30
0.0
 11
764.5641702787688
 21
327.8999999999996
 31
0.0
  0
ARC
  5
AE9
330
AC4
100
AcDbEntity
  8
0
 62
     7
100
AcDbCircle
 10
593.3037500812206
 20
301.8999999999996
 30
0.0
 40
20.0
100
AcDbArc
 50
90.0
 51
134.9954004954455
  0
ARC
  5
AEA
330
AC4
100
AcDbEntity
  8
0
 62
     7
100
AcDbCircle
 10
593.3037500812206
 20
301.8999999999996
 30
0.0
 40
26.0
100
AcDbArc
 50
90.0
 51
134.9954004954593
  0
ARC
  5
AEB
330
AC4
100
AcDbEntity
  8
0
 62
     7
100
AcDbCircle
 10
1035.425420197541
 20
300.3999999999996
 30
0.0
 40
27.5
100
AcDbArc
 50
45.00459950455448
 51
90.0
  0
LINE
  5
AEC
330
AC4
100
AcDbEntity
  8
0
 62
     7
100
AcDbLine
 10
807.0
 20
327.8999999999996
 30
0.0
 11
1035.425420197541
 21
327.8999999999996
 31
0.0
  0
LINE
  5
AED
330
AC4
100
AcDbEntity
  8
0
 62
     7
100
AcDbLine
 10
807.0
 20
321.8999999999996
 30
0.0
 11
1035.425420197541
 21
321.8999999999996
 31
0.0
  0
ARC
  5
AEE
330
AC4
100
AcDbEntity
  8
0
 62
     7
100
AcDbCircle
 10
832.0
 20
300.6499999999996
 30
0.0
 40
19.25
100
AcDbArc
 50
270.0
 51
105.0000000000196
  0
ARC
  5
AEF
330
AC4
100
AcDbEntity
  8
0
 62
     7
100
AcDbCircle
 10
832.0
 20
300.6499999999996
 30
0.0
 40
13.25
100
AcDbArc
 50
270.0
 51
105.0000000000607
  0
ARC
  5
AF0
330
AC4
100
AcDbEntity
  8
0
 62
     7
100
AcDbCircle
 10
807.0
 20
308.6499999999996
 30
0.0
 40
19.25
100
AcDbArc
 50
90.0
 51
284.9999999999755
  0
ARC
  5
AF1
330
AC4
100
AcDbEntity
  8
0
 62
     7
100
AcDbCircle
 10
807.0
 20
308.6499999999996
 30
0.0
 40
13.25
100
AcDbArc
 50
90.0
 51
285.0000000000007
  0
ARC
  5
AF2
330
AC4
100
AcDbEntity
  8
0
 62
     7
100
AcDbCircle
 10
764.5641702787688
 20
309.4499999999998
 30
0.0
 40
12.45
100
AcDbArc
 50
13.95743790669091
 51
90.0
  0
LINE
  5
AF3
330
AC4
100
AcDbEntity
  8
0
 62
     7
100
AcDbLine
 10
805.3884278214535
 20
307.2368601158696
 30
0.0
 11
803.8355135508318
 21
313.0324150736041
 31
0.0
  0
LINE
  5
AF4
330
AC4
100
AcDbEntity
  8
0
 62
     7
100
AcDbLine
 10
828.5706476523774
 20
313.4485171983296
 30
0.0
 11
805.3884278214535
 21
307.2368601158696
 31
0.0
  0
LINE
  5
AF5
330
AC4
100
AcDbEntity
  8
0
 62
     7
100
AcDbLine
 10
782.469437163425
 20
313.900159299289
 30
0.0
 11
784.727594850774
 21
304.8144359935668
 31
0.0
  0
LINE
  5
AF6
330
AC4
100
AcDbEntity
  8
0
 62
     4
100
AcDbLine
 10
807.0
 20
294.6499999999996
 30
0.0
 11
807.0
 21
314.6499999999996
 31
0.0
  0
ARC
  5
AF7
330
AC4
100
AcDbEntity
  8
0
 62
     7
100
AcDbCircle
 10
807.0
 20
310.3500000000003
 30
0.0
 40
28.94999999999999
100
AcDbArc
 50
193.9574379066766
 51
270.0
  0
ARC
  5
AF8
330
AC4
100
AcDbEntity
  8
0
 62
     7
100
AcDbCircle
 10
807.0
 20
310.3500000000003
 30
0.0
 40
22.94999999999999
100
AcDbArc
 50
193.9574379066766
 51
270.0
  0
LINE
  5
AF9
330
AC4
100
AcDbEntity
  8
0
 62
     7
100
AcDbLine
 10
776.6465861440228
 20
312.4529530230975
 30
0.0
 11
778.9047438313718
 21
303.3672297173761
 31
0.0
  0
LINE
  5
AFA
330
AC4
100
AcDbEntity
  8
0
 62
     7
100
AcDbLine
 10
811.9822666182153
 20
290.055927843935
 30
0.0
 11
835.1644864491536
 21
296.2675849263959
 31
0.0
  0
LINE
  5
AFB
330
AC4
100
AcDbEntity
  8
0
 62
     7
100
AcDbLine
 10
807.0
 20
281.3999999999996
 30
0.0
 11
832.0
 21
281.3999999999996
 31
0.0
  0
LINE
  5
AFC
330
AC4
100
AcDbEntity
  8
0
 62
     7
100
AcDbLine
 10
807.0
 20
287.3999999999996
 30
0.0
 11
832.0
 21
287.3999999999996
 31
0.0
  0
LINE
  5
AFD
330
AC4
100
AcDbEntity
  8
0
 62
     4
100
AcDbLine
 10
797.5217082978924
 20
304.6499999999996
 30
0.0
 11
817.0
 21
304.6499999999996
 31
0.0
  0
LINE
  5
AFE
330
AC4
100
AcDbEntity
  8
0
 62
     7
100
AcDbLine
 10
810.429352347608
 20
295.8514828016695
 30
0.0
 11
833.6115721785462
 21
302.0631398841296
 31
0.0
  0
LINE
  5
AFF
330
AC4
100
AcDbEntity
  8
0
 62
     7
100
AcDbLine
 10
833.6115721785462
 20
302.0631398841296
 30
0.0
 11
835.1644864491536
 21
296.2675849263959
 31
0.0
  0
ARC
  5
B00
330
AC4
100
AcDbEntity
  8
0
 62
     7
100
AcDbCircle
 10
764.5641702787688
 20
309.4499999999998
 30
0.0
 40
18.44999999999999
100
AcDbArc
 50
13.95743790669091
 51
90.0
  0
LINE
  5
B01
330
AC4
100
AcDbEntity
  8
0
 62
     7
100
AcDbLine
 10
827.01773338177
 20
319.2440721560642
 30
0.0
 11
803.8355135508318
 21
313.0324150736041
 31
0.0
  0
ARC
  5
B02
330
AC4
100
AcDbEntity
  8
0
 62
     7
100
AcDbCircle
 10
1035.425420197541
 20
300.3999999999996
 30
0.0
 40
21.49999999999999
100
AcDbArc
 50
45.00459950455448
 51
90.0
  0
LINE
  5
B03
330
AC4
100
AcDbEntity
  8
0
 62
     7
100
AcDbLine
 10
1614.0
 20
23.25
 30
0.0
 11
1639.0
 21
23.25
 31
0.0
  0
LINE
  5
B04
330
AC4
100
AcDbEntity
  8
0
 62
     7
100
AcDbLine
 10
1614.0
 20
17.25
 30
0.0
 11
1639.0
 21
17.25
 31
0.0
  0
ENDBLK
  5
AC6
330
AC4
100
AcDbEntity
  8
0
100
AcDbBlockEnd
  0
ENDSEC
  0
SECTION
  2
ENTITIES
  0
INSERT
  5
B05
330
1F
100
AcDbEntity
  8
PAZ5460
100
AcDbBlockReference
  2
paz5460
 10
948.8385520203742
 20
-1105.121186714498
 30
-0.0000000003672348
  0
VIEWPORT
  5
6A
330
1B
100
AcDbEntity
 67
     1
  8
0
100
AcDbViewport
 10
144.2296600341796
 20
98.97533035278321
 30
0.0
 40
348.3547377345459
 41
222.1517806396484
 68
     1
 69
     1
 12
144.2296600341796
 22
98.97533035278321
 13
0.0
 23
0.0
 14
10.0
 24
10.0
 15
10.0
 25
10.0
 16
0.0
 26
0.0
 36
1.0
 17
0.0
 27
0.0
 37
0.0
 42
50.0
 43
0.0
 44
0.0
 45
222.1517806396484
 50
0.0
 51
0.0
 72
   100
 90
    32800
  1

281
     0
 71
     1
 74
     0
110
0.0
120
0.0
130
0.0
111
1.0
121
0.0
131
0.0
112
0.0
122
1.0
132
0.0
 79
     0
146
0.0
  0
VIEWPORT
  5
6C
330
1B
100
AcDbEntity
 67
     1
  8
0
100
AcDbViewport
 10
144.2296578884124
 20
98.97533607482911
 30
0.0
 40
230.7674526214599
 41
158.3605377197265
 68
     2
 69
     2
 12
471.9925402099685
 22
207.0118385025535
 13
0.0
 23
0.0
 14
10.0
 24
10.0
 15
10.0
 25
10.0
 16
0.0
 26
0.0
 36
1.0
 17
0.0
 27
0.0
 37
0.0
 42
50.0
 43
0.0
 44
0.0
 45
537.2024815614429
 50
0.0
 51
0.0
 72
   100
 90
    32864
  1

281
     0
 71
     1
 74
     0
110
330.2484756222961
120
239.5669321729576
130
0.0
111
1.0
121
0.0
131
0.0
112
0.0
122
1.0
132
0.0
 79
     0
146
0.0
  0
ENDSEC
  0
SECTION
  2
OBJECTS
  0
DICTIONARY
  5
C
330
0
100
AcDbDictionary
281
     1
  3
ACAD_GROUP
350
D
  3
ACAD_LAYOUT
350
1A
  3
ACAD_MLINESTYLE
350
17
  3
ACAD_PLOTSETTINGS
350
19
  3
ACAD_PLOTSTYLENAME
350
E
  3
AcDbVariableDictionary
350
44
  0
DICTIONARY
  5
2B
330
2
100
AcDbDictionary
280
     1
281
     1
  3
ACAD_LAYERFILTERS
360
2C
  0
DICTIONARY
  5
D
102
{ACAD_REACTORS
330
C
102
}
330
C
100
AcDbDictionary
281
     1
  0
DICTIONARY
  5
1A
102
{ACAD_REACTORS
330
C
102
}
330
C
100
AcDbDictionary
281
     1
  3
Layout1
350
1E
  3
Model
350
22
  0
DICTIONARY
  5
17
102
{ACAD_REACTORS
330
C
102
}
330
C
100
AcDbDictionary
281
     1
  3
Standard
350
18
  0
DICTIONARY
  5
19
102
{ACAD_REACTORS
330
C
102
}
330
C
100
AcDbDictionary
281
     1
  0
ACDBDICTIONARYWDFLT
  5
E
102
{ACAD_REACTORS
330
C
102
}
330
C
100
AcDbDictionary
281
     1
  3
Normal
350
F
100
AcDbDictionaryWithDefault
340
F
  0
DICTIONARY
  5
44
102
{ACAD_REACTORS
330
C
102
}
330
C
100
AcDbDictionary
281
     1
  3
DIMASSOC
350
46
  3
HIDETEXT
350
45
  0
DICTIONARY
  5
2C
102
{ACAD_REACTORS
330
2B
102
}
330
2B
100
AcDbDictionary
280
     1
281
     1
  3
GEO
360
2D
  3
RAK
360
2E
  3
RAK&GEO
360
2F
  0
LAYOUT
  5
1E
102
{ACAD_REACTORS
330
1A
102
}
330
1A
100
AcDbPlotSettings
  1

  2
\\AOBSRV1\FIN9
  4
A4
  6

 40
6.011333465576171
 41
4.233341693878173
 42
6.011322021484375
 43
4.23333740234375
 44
209.9733276367187
 45
296.9259948730469
 46
0.0
 47
0.0
 48
0.0
 49
0.0
140
0.0
141
0.0
142
1.0
143
1.0
 70
   688
 72
     1
 73
     1
 74
     5
  7

 75
    16
147
1.0
148
0.0
149
0.0
100
AcDbLayout
  1
Layout1
 70
     1
 71
     1
 10
-4.23333740234375
 20
-6.011333465576171
 11
292.6926574707031
 21
203.9619941711425
 12
0.0
 22
0.0
 32
0.0
 14
28.8459315776825
 24
19.79506721496582
 34
0.0
 15
259.6133841991424
 25
178.1556049346923
 35
0.0
146
0.0
 13
0.0
 23
0.0
 33
0.0
 16
1.0
 26
0.0
 36
0.0
 17
0.0
 27
1.0
 37
0.0
 76
     0
330
1B
331
6A
  0
LAYOUT
  5
22
102
{ACAD_REACTORS
330
1A
102
}
330
1A
100
AcDbPlotSettings
  1

  2
\\AOBSRV1\FIN9
  4

  6

 40
0.0
 41
0.0
 42
0.0
 43
0.0
 44
0.0
 45
0.0
 46
0.0
 47
0.0
 48
0.0
 49
0.0
140
0.0
141
0.0
142
1.0
143
1.0
 70
  1712
 72
     0
 73
     0
 74
     0
  7

 75
     0
147
1.0
148
0.0
149
0.0
100
AcDbLayout
  1
Model
 70
     1
 71
     0
 10
0.0
 20
0.0
 11
12.0
 21
9.0
 12
0.0
 22
0.0
 32
0.0
 14
0.0
 24
0.0
 34
0.0
 15
0.0
 25
0.0
 35
0.0
146
0.0
 13
0.0
 23
0.0
 33
0.0
 16
1.0
 26
0.0
 36
0.0
 17
0.0
 27
1.0
 37
0.0
 76
     0
330
1F
  0
MLINESTYLE
  5
18
102
{ACAD_REACTORS
330
17
102
}
330
17
100
AcDbMlineStyle
  2
STANDARD
 70
     0
  3

 62
   256
 51
90.0
 52
90.0
 71
     2
 49
0.5
 62
   256
  6
BYLAYER
 49
-0.5
 62
   256
  6
BYLAYER
  0
ACDBPLACEHOLDER
  5
F
102
{ACAD_REACTORS
330
E
102
}
330
E
  0
DICTIONARYVAR
  5
46
102
{ACAD_REACTORS
330
44
102
}
330
44
100
DictionaryVariables
280
     0
  1
2
  0
DICTIONARYVAR
  5
45
102
{ACAD_REACTORS
330
44
102
}
330
44
100
DictionaryVariables
280
     0
  1
1
  0
XRECORD
  5
2D
102
{ACAD_REACTORS
330
2C
102
}
330
2C
100
AcDbXrecord
280
     1
  1
GEO
  1
GEO-*
  1
*
  1
*
 70
     0
  1
*
  1
*
  0
XRECORD
  5
2E
102
{ACAD_REACTORS
330
2C
102
}
330
2C
100
AcDbXrecord
280
     1
  1
RAK
  1
RAK-*
  1
*
  1
*
 70
     0
  1
*
  1
*
  0
XRECORD
  5
2F
102
{ACAD_REACTORS
330
2C
102
}
330
2C
100
AcDbXrecord
280
     1
  1
RAK&GEO
  1
RAK-*,GEO-*
  1
*
  1
*
 70
     0
  1
*
  1
*
  0
ENDSEC
  0
EOF
