  0
SECTION
  2
HEADER
  9
$ACADVER
  1
AC1015
  9
$ACADMAINTVER
 70
    14
  9
$DWGCODEPAGE
  3
ANSI_1252
  9
$INSBASE
 10
0.0
 20
0.0
 30
0.0
  9
$EXTMIN
 10
2986.006696038673
 20
1558.032970641346
 30
0.0
  9
$EXTMAX
 10
4226.47725878715
 20
2017.132954024419
 30
0.0
  9
$LIMMIN
 10
0.0
 20
0.0
  9
$LIMMAX
 10
420.0
 20
297.0
  9
$ORTHOMODE
 70
     0
  9
$REGENMODE
 70
     1
  9
$FILLMODE
 70
     1
  9
$QTEXTMODE
 70
     0
  9
$MIRRTEXT
 70
     1
  9
$LTSCALE
 40
1.0
  9
$ATTMODE
 70
     1
  9
$TEXTSIZE
 40
2.5
  9
$TRACEWID
 40
1.0
  9
$TEXTSTYLE
  7
Standard
  9
$CLAYER
  8
0
  9
$CELTYPE
  6
ByLayer
  9
$CECOLOR
 62
   256
  9
$CELTSCALE
 40
1.0
  9
$DISPSILH
 70
     0
  9
$DIMSCALE
 40
1.0
  9
$DIMASZ
 40
2.5
  9
$DIMEXO
 40
0.625
  9
$DIMDLI
 40
3.75
  9
$DIMRND
 40
0.0
  9
$DIMDLE
 40
0.0
  9
$DIMEXE
 40
1.25
  9
$DIMTP
 40
0.0
  9
$DIMTM
 40
0.0
  9
$DIMTXT
 40
2.5
  9
$DIMCEN
 40
2.5
  9
$DIMTSZ
 40
0.0
  9
$DIMTOL
 70
     0
  9
$DIMLIM
 70
     0
  9
$DIMTIH
 70
     0
  9
$DIMTOH
 70
     0
  9
$DIMSE1
 70
     0
  9
$DIMSE2
 70
     0
  9
$DIMTAD
 70
     1
  9
$DIMZIN
 70
     8
  9
$DIMBLK
  1

  9
$DIMASO
 70
     1
  9
$DIMSHO
 70
     1
  9
$DIMPOST
  1

  9
$DIMAPOST
  1

  9
$DIMALT
 70
     0
  9
$DIMALTD
 70
     3
  9
$DIMALTF
 40
0.03937007874016
  9
$DIMLFAC
 40
1.0
  9
$DIMTOFL
 70
     1
  9
$DIMTVP
 40
0.0
  9
$DIMTIX
 70
     0
  9
$DIMSOXD
 70
     0
  9
$DIMSAH
 70
     0
  9
$DIMBLK1
  1

  9
$DIMBLK2
  1

  9
$DIMSTYLE
  2
ISO-25
  9
$DIMCLRD
 70
     0
  9
$DIMCLRE
 70
     0
  9
$DIMCLRT
 70
     0
  9
$DIMTFAC
 40
1.0
  9
$DIMGAP
 40
0.625
  9
$DIMJUST
 70
     0
  9
$DIMSD1
 70
     0
  9
$DIMSD2
 70
     0
  9
$DIMTOLJ
 70
     0
  9
$DIMTZIN
 70
     8
  9
$DIMALTZ
 70
     0
  9
$DIMALTTZ
 70
     0
  9
$DIMUPT
 70
     0
  9
$DIMDEC
 70
     2
  9
$DIMTDEC
 70
     2
  9
$DIMALTU
 70
     2
  9
$DIMALTTD
 70
     3
  9
$DIMTXSTY
  7
Standard
  9
$DIMAUNIT
 70
     0
  9
$DIMADEC
 70
     0
  9
$DIMALTRND
 40
0.0
  9
$DIMAZIN
 70
     0
  9
$DIMDSEP
 70
    44
  9
$DIMATFIT
 70
     3
  9
$DIMFRAC
 70
     0
  9
$DIMLDRBLK
  1

  9
$DIMLUNIT
 70
     2
  9
$DIMLWD
 70
    -2
  9
$DIMLWE
 70
    -2
  9
$DIMTMOVE
 70
     0
  9
$LUNITS
 70
     2
  9
$LUPREC
 70
     4
  9
$SKETCHINC
 40
1.0
  9
$FILLETRAD
 40
10.0
  9
$AUNITS
 70
     0
  9
$AUPREC
 70
     0
  9
$MENU
  1
.
  9
$ELEVATION
 40
0.0
  9
$PELEVATION
 40
0.0
  9
$THICKNESS
 40
0.0
  9
$LIMCHECK
 70
     0
  9
$CHAMFERA
 40
10.0
  9
$CHAMFERB
 40
10.0
  9
$CHAMFERC
 40
20.0
  9
$CHAMFERD
 40
0.0
  9
$SKPOLY
 70
     0
  9
$TDCREATE
 40
2452984.401453715
  9
$TDUCREATE
 40
2452984.359787048
  9
$TDUPDATE
 40
2452989.716780138
  9
$TDUUPDATE
 40
2452989.675113472
  9
$TDINDWG
 40
0.1192270023
  9
$TDUSRTIMER
 40
0.1192268171
  9
$USRTIMER
 70
     1
  9
$ANGBASE
 50
0.0
  9
$ANGDIR
 70
     0
  9
$PDMODE
 70
     0
  9
$PDSIZE
 40
0.0
  9
$PLINEWID
 40
0.0
  9
$SPLFRAME
 70
     0
  9
$SPLINETYPE
 70
     6
  9
$SPLINESEGS
 70
     8
  9
$HANDSEED
  5
1871
  9
$SURFTAB1
 70
     6
  9
$SURFTAB2
 70
     6
  9
$SURFTYPE
 70
     6
  9
$SURFU
 70
     6
  9
$SURFV
 70
     6
  9
$UCSBASE
  2

  9
$UCSNAME
  2

  9
$UCSORG
 10
3006.241977412912
 20
1787.582962332882
 30
0.0
  9
$UCSXDIR
 10
1.0
 20
0.0
 30
0.0
  9
$UCSYDIR
 10
0.0
 20
1.0
 30
0.0
  9
$UCSORTHOREF
  2

  9
$UCSORTHOVIEW
 70
     0
  9
$UCSORGTOP
 10
0.0
 20
0.0
 30
0.0
  9
$UCSORGBOTTOM
 10
0.0
 20
0.0
 30
0.0
  9
$UCSORGLEFT
 10
0.0
 20
0.0
 30
0.0
  9
$UCSORGRIGHT
 10
0.0
 20
0.0
 30
0.0
  9
$UCSORGFRONT
 10
0.0
 20
0.0
 30
0.0
  9
$UCSORGBACK
 10
0.0
 20
0.0
 30
0.0
  9
$PUCSBASE
  2

  9
$PUCSNAME
  2

  9
$PUCSORG
 10
0.0
 20
0.0
 30
0.0
  9
$PUCSXDIR
 10
1.0
 20
0.0
 30
0.0
  9
$PUCSYDIR
 10
0.0
 20
1.0
 30
0.0
  9
$PUCSORTHOREF
  2

  9
$PUCSORTHOVIEW
 70
     0
  9
$PUCSORGTOP
 10
0.0
 20
0.0
 30
0.0
  9
$PUCSORGBOTTOM
 10
0.0
 20
0.0
 30
0.0
  9
$PUCSORGLEFT
 10
0.0
 20
0.0
 30
0.0
  9
$PUCSORGRIGHT
 10
0.0
 20
0.0
 30
0.0
  9
$PUCSORGFRONT
 10
0.0
 20
0.0
 30
0.0
  9
$PUCSORGBACK
 10
0.0
 20
0.0
 30
0.0
  9
$USERI1
 70
     0
  9
$USERI2
 70
     0
  9
$USERI3
 70
     0
  9
$USERI4
 70
     0
  9
$USERI5
 70
     0
  9
$USERR1
 40
0.0
  9
$USERR2
 40
0.0
  9
$USERR3
 40
0.0
  9
$USERR4
 40
0.0
  9
$USERR5
 40
0.0
  9
$WORLDVIEW
 70
     1
  9
$SHADEDGE
 70
     3
  9
$SHADEDIF
 70
    70
  9
$TILEMODE
 70
     1
  9
$MAXACTVP
 70
    64
  9
$PINSBASE
 10
0.0
 20
0.0
 30
0.0
  9
$PLIMCHECK
 70
     0
  9
$PEXTMIN
 10
28.8459315776825
 20
19.79506721496582
 30
0.0
  9
$PEXTMAX
 10
259.6133841991424
 20
178.1556049346923
 30
0.0
  9
$PLIMMIN
 10
-4.23333740234375
 20
-6.011333465576171
  9
$PLIMMAX
 10
292.6926574707031
 20
203.9619941711425
  9
$UNITMODE
 70
     0
  9
$VISRETAIN
 70
     1
  9
$PLINEGEN
 70
     0
  9
$PSLTSCALE
 70
     1
  9
$TREEDEPTH
 70
  3020
  9
$CMLSTYLE
  2
Standard
  9
$CMLJUST
 70
     0
  9
$CMLSCALE
 40
20.0
  9
$PROXYGRAPHICS
 70
     1
  9
$MEASUREMENT
 70
     1
  9
$CELWEIGHT
370
    -1
  9
$ENDCAPS
280
     0
  9
$JOINSTYLE
280
     0
  9
$LWDISPLAY
290
     0
  9
$INSUNITS
 70
     4
  9
$HYPERLINKBASE
  1

  9
$STYLESHEET
  1

  9
$XEDIT
290
     1
  9
$CEPSNTYPE
380
     0
  9
$PSTYLEMODE
290
     1
  9
$FINGERPRINTGUID
  2
{1F0C9108-7A24-43FE-92C0-F61D6143634A}
  9
$VERSIONGUID
  2
{6120F9AE-6F02-4432-ADDD-BC02792D20FC}
  9
$EXTNAMES
290
     1
  9
$PSVPSCALE
 40
0.0
  9
$OLESTARTUP
290
     0
  0
ENDSEC
  0
SECTION
  2
CLASSES
  0
CLASS
  1
ACDBDICTIONARYWDFLT
  2
AcDbDictionaryWithDefault
  3
AutoCAD 2000
 90
        0
280
     0
281
     0
  0
CLASS
  1
ACDBPLACEHOLDER
  2
AcDbPlaceHolder
  3
AutoCAD 2000
 90
        0
280
     0
281
     0
  0
CLASS
  1
LAYOUT
  2
AcDbLayout
  3
AutoCAD 2000
 90
        0
280
     0
281
     0
  0
CLASS
  1
DICTIONARYVAR
  2
AcDbDictionaryVar
  3
AutoCAD 2000
 90
        0
280
     0
281
     0
  0
ENDSEC
  0
SECTION
  2
TABLES
  0
TABLE
  2
VPORT
  5
8
330
0
100
AcDbSymbolTable
 70
     2
  0
VPORT
  5
1870
330
8
100
AcDbSymbolTableRecord
100
AcDbViewportTableRecord
  2
*Active
 70
     0
 10
0.0
 20
0.0
 11
1.0
 21
1.0
 12
3609.40966379942
 22
1787.583130967019
 13
0.0
 23
0.0
 14
10.0
 24
10.0
 15
10.0
 25
10.0
 16
0.0
 26
0.0
 36
1.0
 17
0.0
 27
0.0
 37
0.0
 40
835.725951482048
 41
1.5
 42
50.0
 43
0.0
 44
0.0
 50
0.0
 51
0.0
 71
     0
 72
   100
 73
     1
 74
     3
 75
     0
 76
     0
 77
     0
 78
     0
281
     0
 65
     1
110
3006.241977412912
120
1787.582962332882
130
0.0
111
1.0
121
0.0
131
0.0
112
0.0
122
1.0
132
0.0
 79
     0
146
0.0
  0
ENDTAB
  0
TABLE
  2
LTYPE
  5
5
330
0
100
AcDbSymbolTable
 70
     1
  0
LTYPE
  5
14
330
5
100
AcDbSymbolTableRecord
100
AcDbLinetypeTableRecord
  2
ByBlock
 70
     0
  3

 72
    65
 73
     0
 40
0.0
  0
LTYPE
  5
15
330
5
100
AcDbSymbolTableRecord
100
AcDbLinetypeTableRecord
  2
ByLayer
 70
     0
  3

 72
    65
 73
     0
 40
0.0
  0
LTYPE
  5
16
330
5
100
AcDbSymbolTableRecord
100
AcDbLinetypeTableRecord
  2
Continuous
 70
     0
  3
Solid line
 72
    65
 73
     0
 40
0.0
  0
ENDTAB
  0
TABLE
  2
LAYER
  5
2
102
{ACAD_XDICTIONARY
360
2B
102
}
330
0
100
AcDbSymbolTable
 70
     1
  0
LAYER
  5
10
330
2
100
AcDbSymbolTableRecord
100
AcDbLayerTableRecord
  2
0
 70
     0
 62
     7
  6
Continuous
370
    -3
390
F
  0
ENDTAB
  0
TABLE
  2
STYLE
  5
3
330
0
100
AcDbSymbolTable
 70
     1
  0
STYLE
  5
11
330
3
100
AcDbSymbolTableRecord
100
AcDbTextStyleTableRecord
  2
Standard
 70
     0
 40
0.0
 41
1.0
 50
0.0
 71
     0
 42
2.5
  3
txt
  4

  0
ENDTAB
  0
TABLE
  2
VIEW
  5
6
330
0
100
AcDbSymbolTable
 70
     0
  0
ENDTAB
  0
TABLE
  2
UCS
  5
7
330
0
100
AcDbSymbolTable
 70
     0
  0
ENDTAB
  0
TABLE
  2
APPID
  5
9
330
0
100
AcDbSymbolTable
 70
     1
  0
APPID
  5
12
330
9
100
AcDbSymbolTableRecord
100
AcDbRegAppTableRecord
  2
ACAD
 70
     0
  0
ENDTAB
  0
TABLE
  2
DIMSTYLE
  5
A
330
0
100
AcDbSymbolTable
 70
     1
100
AcDbDimStyleTable
 71
     0
  0
DIMSTYLE
105
27
330
A
100
AcDbSymbolTableRecord
100
AcDbDimStyleTableRecord
  2
ISO-25
 70
     0
 41
2.5
 42
0.625
 43
3.75
 44
1.25
 73
     0
 74
     0
 77
     1
 78
     8
140
2.5
141
2.5
143
0.03937007874016
147
0.625
171
     3
172
     1
271
     2
272
     2
274
     3
278
    44
283
     0
284
     8
340
11
  0
ENDTAB
  0
TABLE
  2
BLOCK_RECORD
  5
1
330
0
100
AcDbSymbolTable
 70
     1
  0
BLOCK_RECORD
  5
1F
330
1
100
AcDbSymbolTableRecord
100
AcDbBlockTableRecord
  2
*Model_Space
340
22
  0
BLOCK_RECORD
  5
1B
330
1
100
AcDbSymbolTableRecord
100
AcDbBlockTableRecord
  2
*Paper_Space
340
1E
  0
BLOCK_RECORD
  5
17EF
330
1
100
AcDbSymbolTableRecord
100
AcDbBlockTableRecord
  2
pu32d
340
0
310
2800000020000000200000000100080000000000000400000000000000000000000000000000000000000000000080000080000000808000800000008000800080800000C0C0C000C0DCC000F0CAA6000020400000206000002080000020A0000020C0000020E00000400000004020000040400000406000004080000040A0
310
000040C0000040E00000600000006020000060400000606000006080000060A0000060C0000060E00000800000008020000080400000806000008080000080A0000080C0000080E00000A0000000A0200000A0400000A0600000A0800000A0A00000A0C00000A0E00000C0000000C0200000C0400000C0600000C0800000C0
310
A00000C0C00000C0E00000E0000000E0200000E0400000E0600000E0800000E0A00000E0C00000E0E00040000000400020004000400040006000400080004000A0004000C0004000E00040200000402020004020400040206000402080004020A0004020C0004020E000404000004040200040404000404060004040800040
310
40A0004040C0004040E00040600000406020004060400040606000406080004060A0004060C0004060E00040800000408020004080400040806000408080004080A0004080C0004080E00040A0000040A0200040A0400040A0600040A0800040A0A00040A0C00040A0E00040C0000040C0200040C0400040C0600040C08000
310
40C0A00040C0C00040C0E00040E0000040E0200040E0400040E0600040E0800040E0A00040E0C00040E0E00080000000800020008000400080006000800080008000A0008000C0008000E00080200000802020008020400080206000802080008020A0008020C0008020E00080400000804020008040400080406000804080
310
008040A0008040C0008040E00080600000806020008060400080606000806080008060A0008060C0008060E00080800000808020008080400080806000808080008080A0008080C0008080E00080A0000080A0200080A0400080A0600080A0800080A0A00080A0C00080A0E00080C0000080C0200080C0400080C0600080C0
310
800080C0A00080C0C00080C0E00080E0000080E0200080E0400080E0600080E0800080E0A00080E0C00080E0E000C0000000C0002000C0004000C0006000C0008000C000A000C000C000C000E000C0200000C0202000C0204000C0206000C0208000C020A000C020C000C020E000C0400000C0402000C0404000C0406000C0
310
408000C040A000C040C000C040E000C0600000C0602000C0604000C0606000C0608000C060A000C060C000C060E000C0800000C0802000C0804000C0806000C0808000C080A000C080C000C080E000C0A00000C0A02000C0A04000C0A06000C0A08000C0A0A000C0A0C000C0A0E000C0C00000C0C02000C0C04000C0C06000
310
C0C08000C0C0A000F0FBFF00A4A0A000808080000000FF0000FF000000FFFF00FF000000FF00FF00FFFF0000FFFFFF0000000000000000000000000000000000000000000000000000000000000000000000000000000000000000000000000000000000000000000000000000000000000000000000000000000000000000
310
00000000000000000000000000000000000000000000000000000000000000000000000000000000000000000000000000000000000000000000000000000000000000000000000000000000000000000000000000000000000000000000000000000000000000000000000000000000000000000000000000000000000000
310
0000000000000000000000000000000000000000000000000000000000000000000000000000000000000000000000000000000000000000000000000000000000000000000000000000000000000000000000000000000000000000000000000000000000000000000000000000000000000000000000FFFFFFFFFFFFFFFF
310
FF00000000000000000000000000000000000000000000FFFFFFFFFFFFFFFFFFFF00000000000000000000000000000000000000000000FF000000000000000000FF0000000000000000000000000000000000000000FFFF000000000000000000FF0000000000000000000000000000000000000000FF0000000000000000
310
000000FF0000000000000000000000000000000000FFFEFF0000000000000000000000FEFF0000000000000000000000FFFEFF0000FFFFFF0000000000000000000000FEFF0000000000000000000000FFFEFF000000000000000000000000000000000000FF00000000000000000000FFFF00000000000000000000000000
310
000000000000FF00000000000000000000FF000000000000000000000000000000000000000000FF0000000000000000FFFF000000000000000000000000000000000000000000FFFFFFFFFFFFFFFFFFFF00000000000000000000000000000000000000000000FFFFFFFFFFFFFFFFFF000000000000000000000000000000
310
00000000000000000000000000000000000000000000000000000000000000000000000000000000000000000000000000000000000000000000000000000000000000000000000000000000000000000000000000000000000000000000000000000000000000000000000000000000000000000000000000000000000000
310
00000000000000000000000000000000000000000000000000000000000000000000000000000000000000000000000000000000000000000000000000000000000000000000000000000000000000000000000000000000000000000000000000000000000000000000000000000000000000000000000000000000000000
310
0000000000000000000000000000000000000000000000000000000000000000000000000000000000000000000000000000000000000000
102
{BLKREFS
331
1858
102
}
1001
ACAD
1000
DesignCenter Data
1002
{
1070
     1
1070
     4
1002
}
  0
ENDTAB
  0
ENDSEC
  0
SECTION
  2
BLOCKS
  0
BLOCK
  5
20
330
1F
100
AcDbEntity
  8
0
100
AcDbBlockBegin
  2
*Model_Space
 70
     0
 10
0.0
 20
0.0
 30
0.0
  3
*Model_Space
  1

  0
ENDBLK
  5
21
330
1F
100
AcDbEntity
  8
0
100
AcDbBlockEnd
  0
BLOCK
  5
1C
330
1B
100
AcDbEntity
 67
     1
  8
0
100
AcDbBlockBegin
  2
*Paper_Space
 70
     0
 10
0.0
 20
0.0
 30
0.0
  3
*Paper_Space
  1

  0
ENDBLK
  5
1D
330
1B
100
AcDbEntity
 67
     1
  8
0
100
AcDbBlockEnd
  0
BLOCK
  5
17F0
330
17EF
100
AcDbEntity
  8
0
100
AcDbBlockBegin
  2
pu32d
 70
     0
 10
0.0
 20
0.0
 30
0.0
  3
pu32d
  1

  0
LINE
  5
17F2
330
17EF
100
AcDbEntity
  8
0
 62
     7
100
AcDbLine
 10
129.167926550308
 20
-206.4999999999999
 30
0.0
 11
300.0
 21
-206.4999999999999
 31
0.0
  0
LINE
  5
17F3
330
17EF
100
AcDbEntity
  8
0
 62
     7
100
AcDbLine
 10
121.7789604043755
 20
-226.0
 30
0.0
 11
300.0
 21
-226.0
 31
0.0
  0
LINE
  5
17F4
330
17EF
100
AcDbEntity
  8
0
 62
     7
100
AcDbLine
 10
33.64845432598667
 20
-16.80522793964337
 30
0.0
 11
30.6983070176575
 21
12.6941294184071
 31
0.0
  0
ARC
  5
17F5
330
17EF
100
AcDbEntity
  8
0
 62
     7
100
AcDbCircle
 10
-0.150284093204391
 20
9.5
 30
0.0
 40
20.0
100
AcDbArc
 50
220.5383065500984
 51
270.0
  0
LINE
  5
17F6
330
17EF
100
AcDbEntity
  8
0
 62
     7
100
AcDbLine
 10
22.85890220463261
 20
-19.45822678693366
 30
0.0
 11
20.11312721772992
 21
7.997553924338717
 31
0.0
  0
LINE
  5
17F7
330
17EF
100
AcDbEntity
  8
0
 62
     7
100
AcDbLine
 10
35.33128495784694
 20
-23.6491769418717
 30
0.0
 11
101.3362288005373
 21
-187.6980623486997
 31
0.0
  0
LINE
  5
17F8
330
17EF
100
AcDbEntity
  8
0
 62
     7
100
AcDbLine
 10
24.54173283648924
 20
-26.30217578916199
 30
0.0
 11
98.58587894623269
 21
-210.3317186239146
 31
0.0
  0
ARC
  5
17F9
330
17EF
100
AcDbEntity
  8
0
 62
     7
100
AcDbCircle
 10
121.7789604043755
 20
-201.0
 30
0.0
 40
25.0
100
AcDbArc
 50
201.9173510559971
 51
270.0
  0
ARC
  5
17FA
330
17EF
100
AcDbEntity
  8
0
 62
     7
100
AcDbCircle
 10
129.167926550308
 20
-176.5
 30
0.0
 40
30.0
100
AcDbArc
 50
201.9173510559971
 51
270.0
  0
ARC
  5
17FB
330
17EF
100
AcDbEntity
  8
0
 62
     7
100
AcDbCircle
 10
58.52436641598979
 20
-14.31745831795706
 30
0.0
 40
25.0
100
AcDbArc
 50
185.7109999999986
 51
201.9173510559971
  0
ARC
  5
17FC
330
17EF
100
AcDbEntity
  8
0
 62
     7
100
AcDbCircle
 10
47.73481429463209
 20
-16.97045716524735
 30
0.0
 40
25.0
100
AcDbArc
 50
185.7110000000115
 51
201.9173510559971
  0
LINE
  5
17FD
330
17EF
100
AcDbEntity
  8
0
 62
     7
100
AcDbLine
 10
-5.75
 20
23.5
 30
0.0
 11
18.75786921445978
 21
23.5
 31
0.0
  0
ARC
  5
17FE
330
17EF
100
AcDbEntity
  8
0
 62
     7
100
AcDbCircle
 10
5.119999999998981
 20
-8.370000000002619
 30
0.0
 40
2.129999999999999
100
AcDbArc
 50
270.0
 51
48.000000000098
  0
LINE
  5
17FF
330
17EF
100
AcDbEntity
  8
0
 62
     7
100
AcDbLine
 10
-5.25
 20
12.5
 30
0.0
 11
15.13794479972784
 21
12.5
 31
0.0
  0
LINE
  5
1800
330
17EF
100
AcDbEntity
  8
0
 62
     4
100
AcDbLine
 10
-10.0
 20
0.0
 30
0.0
 11
10.0
 21
0.0
 31
0.0
  0
ARC
  5
1801
330
17EF
100
AcDbEntity
  8
0
 62
     7
100
AcDbCircle
 10
-5.75
 20
11.5
 30
0.0
 40
12.0
100
AcDbArc
 50
90.0
 51
180.0
  0
LINE
  5
1802
330
17EF
100
AcDbEntity
  8
0
 62
     7
100
AcDbLine
 10
-17.75
 20
3.000437081158452
 30
0.0
 11
-17.75
 21
11.5
 31
0.0
  0
ARC
  5
1803
330
17EF
100
AcDbEntity
  8
0
 62
     7
100
AcDbCircle
 10
-7.75
 20
3.000437081158452
 30
0.0
 40
10.0
100
AcDbArc
 50
180.0
 51
220.5383065500984
  0
LINE
  5
1804
330
17EF
100
AcDbEntity
  8
0
 62
     7
100
AcDbLine
 10
-0.150284093204391
 20
-10.5
 30
0.0
 11
5.119999999998981
 21
-10.5
 31
0.0
  0
LINE
  5
1805
330
17EF
100
AcDbEntity
  8
0
 62
     7
100
AcDbLine
 10
6.545248191541759
 20
-6.787101521731528
 30
0.0
 11
-7.257391819079202
 21
5.64085136581707
 31
0.0
  0
ARC
  5
1806
330
17EF
100
AcDbEntity
  8
0
 62
     7
100
AcDbCircle
 10
-5.25
 20
7.87028584224754
 30
0.0
 40
3.0
100
AcDbArc
 50
180.0
 51
227.9999999999508
  0
LINE
  5
1807
330
17EF
100
AcDbEntity
  8
0
 62
     7
100
AcDbLine
 10
-8.25
 20
7.87028584224754
 30
0.0
 11
-8.25
 21
9.5
 31
0.0
  0
ARC
  5
1808
330
17EF
100
AcDbEntity
  8
0
 62
     7
100
AcDbCircle
 10
-5.25
 20
9.5
 30
0.0
 40
3.0
100
AcDbArc
 50
90.0
 51
180.0
  0
LINE
  5
1809
330
17EF
100
AcDbEntity
  8
0
 62
     4
100
AcDbLine
 10
0.0
 20
-10.0
 30
0.0
 11
0.0
 21
10.0
 31
0.0
  0
ARC
  5
180A
330
17EF
100
AcDbEntity
  8
0
 62
     7
100
AcDbCircle
 10
18.75786921445978
 20
11.5
 30
0.0
 40
12.0
100
AcDbArc
 50
5.710999999998601
 51
90.0
  0
ARC
  5
180B
330
17EF
100
AcDbEntity
  8
0
 62
     7
100
AcDbCircle
 10
15.13794479972784
 20
7.5
 30
0.0
 40
5.0
100
AcDbArc
 50
5.711000000024527
 51
90.0
  0
LINE
  5
180C
330
17EF
100
AcDbEntity
  8
0
 62
     7
100
AcDbLine
 10
633.6484543259866
 20
16.80522793963973
 30
0.0
 11
630.6983070176575
 21
-12.6941294184071
 31
0.0
  0
ARC
  5
180D
330
17EF
100
AcDbEntity
  8
0
 62
     7
100
AcDbCircle
 10
594.2499999999999
 20
-11.5
 30
0.0
 40
12.0
100
AcDbArc
 50
180.0
 51
270.0
  0
LINE
  5
180E
330
17EF
100
AcDbEntity
  8
0
 62
     7
100
AcDbLine
 10
1166.351545674006
 20
16.80522793963973
 30
0.0
 11
1169.301692982335
 21
-12.6941294184071
 31
0.0
  0
ARC
  5
180F
330
17EF
100
AcDbEntity
  8
0
 62
     7
100
AcDbCircle
 10
1205.75
 20
-11.5
 30
0.0
 40
12.0
100
AcDbArc
 50
270.0
 51
0.0
  0
ARC
  5
1810
330
17EF
100
AcDbEntity
  8
0
 62
     7
100
AcDbCircle
 10
594.7499999999999
 20
-9.5
 30
0.0
 40
3.0
100
AcDbArc
 50
180.0
 51
270.0
  0
ARC
  5
1811
330
17EF
100
AcDbEntity
  8
0
 62
     7
100
AcDbCircle
 10
615.1379447997278
 20
-7.5
 30
0.0
 40
5.0
100
AcDbArc
 50
270.0
 51
354.2889999999754
  0
ARC
  5
1812
330
17EF
100
AcDbEntity
  8
0
 62
     7
100
AcDbCircle
 10
1205.25
 20
-9.5
 30
0.0
 40
3.0
100
AcDbArc
 50
270.0
 51
0.0
  0
ARC
  5
1813
330
17EF
100
AcDbEntity
  8
0
 62
     7
100
AcDbCircle
 10
1184.862055200268
 20
-7.5
 30
0.0
 40
5.0
100
AcDbArc
 50
185.7110000000245
 51
270.0
  0
LINE
  5
1814
330
17EF
100
AcDbEntity
  8
0
 62
     7
100
AcDbLine
 10
566.3515456740096
 20
-16.80522793964337
 30
0.0
 11
569.3016929823389
 21
12.6941294184071
 31
0.0
  0
ARC
  5
1815
330
17EF
100
AcDbEntity
  8
0
 62
     7
100
AcDbCircle
 10
600.1502840932007
 20
9.5
 30
0.0
 40
20.0
100
AcDbArc
 50
270.0
 51
319.4616934499015
  0
LINE
  5
1816
330
17EF
100
AcDbEntity
  8
0
 62
     7
100
AcDbLine
 10
577.1410977953637
 20
-19.45822678693366
 30
0.0
 11
579.8868727822664
 21
7.997553924338717
 31
0.0
  0
LINE
  5
1817
330
17EF
100
AcDbEntity
  8
0
 62
     7
100
AcDbLine
 10
564.6687150421493
 20
-23.6491769418717
 30
0.0
 11
498.663771199459
 21
-187.6980623486997
 31
0.0
  0
LINE
  5
1818
330
17EF
100
AcDbEntity
  8
0
 62
     7
100
AcDbLine
 10
575.4582671635071
 20
-26.30217578916199
 30
0.0
 11
501.4141210537636
 21
-210.3317186239146
 31
0.0
  0
LINE
  5
1819
330
17EF
100
AcDbEntity
  8
0
 62
     7
100
AcDbLine
 10
470.8320734496883
 20
-206.4999999999999
 30
0.0
 11
300.0
 21
-206.4999999999999
 31
0.0
  0
LINE
  5
181A
330
17EF
100
AcDbEntity
  8
0
 62
     7
100
AcDbLine
 10
478.2210395956208
 20
-226.0
 30
0.0
 11
300.0
 21
-226.0
 31
0.0
  0
ARC
  5
181B
330
17EF
100
AcDbEntity
  8
0
 62
     7
100
AcDbCircle
 10
470.8320734496883
 20
-176.5
 30
0.0
 40
30.0
100
AcDbArc
 50
270.0
 51
338.0826489440028
  0
ARC
  5
181C
330
17EF
100
AcDbEntity
  8
0
 62
     7
100
AcDbCircle
 10
478.2210395956208
 20
-201.0
 30
0.0
 40
25.0
100
AcDbArc
 50
270.0
 51
338.0826489440028
  0
ARC
  5
181D
330
17EF
100
AcDbEntity
  8
0
 62
     7
100
AcDbCircle
 10
618.7578692144597
 20
-11.5
 30
0.0
 40
12.0
100
AcDbArc
 50
270.0
 51
354.2890000000014
  0
ARC
  5
181E
330
17EF
100
AcDbEntity
  8
0
 62
     7
100
AcDbCircle
 10
541.4756335840065
 20
-14.31745831795706
 30
0.0
 40
25.0
100
AcDbArc
 50
338.0826489440028
 51
354.2890000000014
  0
ARC
  5
181F
330
17EF
100
AcDbEntity
  8
0
 62
     7
100
AcDbCircle
 10
552.2651857053642
 20
-16.97045716524735
 30
0.0
 40
25.0
100
AcDbArc
 50
338.0826489440028
 51
354.2889999999883
  0
LINE
  5
1820
330
17EF
100
AcDbEntity
  8
0
 62
     7
100
AcDbLine
 10
594.2499999999999
 20
-23.5
 30
0.0
 11
618.7578692144597
 21
-23.5
 31
0.0
  0
LINE
  5
1821
330
17EF
100
AcDbEntity
  8
0
 62
     7
100
AcDbLine
 10
594.7499999999999
 20
-12.5
 30
0.0
 11
615.1379447997278
 21
-12.5
 31
0.0
  0
ARC
  5
1822
330
17EF
100
AcDbEntity
  8
0
 62
     7
100
AcDbCircle
 10
1181.242130785536
 20
-11.5
 30
0.0
 40
12.0
100
AcDbArc
 50
185.7109999999986
 51
270.0
  0
LINE
  5
1823
330
17EF
100
AcDbEntity
  8
0
 62
     7
100
AcDbLine
 10
1205.75
 20
-23.5
 30
0.0
 11
1181.242130785536
 21
-23.5
 31
0.0
  0
LINE
  5
1824
330
17EF
100
AcDbEntity
  8
0
 62
     7
100
AcDbLine
 10
1205.25
 20
-12.5
 30
0.0
 11
1184.862055200268
 21
-12.5
 31
0.0
  0
LINE
  5
1825
330
17EF
100
AcDbEntity
  8
0
 62
     7
100
AcDbLine
 10
729.167926550308
 20
206.4999999999999
 30
0.0
 11
900.0
 21
206.4999999999999
 31
0.0
  0
LINE
  5
1826
330
17EF
100
AcDbEntity
  8
0
 62
     7
100
AcDbLine
 10
721.7789604043755
 20
226.0
 30
0.0
 11
900.0
 21
226.0
 31
0.0
  0
LINE
  5
1827
330
17EF
100
AcDbEntity
  8
0
 62
     7
100
AcDbLine
 10
635.3312849578469
 20
23.6491769418717
 30
0.0
 11
701.3362288005374
 21
187.6980623486997
 31
0.0
  0
LINE
  5
1828
330
17EF
100
AcDbEntity
  8
0
 62
     7
100
AcDbLine
 10
624.5417328364892
 20
26.30217578916199
 30
0.0
 11
698.5858789462326
 21
210.3317186239146
 31
0.0
  0
ARC
  5
1829
330
17EF
100
AcDbEntity
  8
0
 62
     7
100
AcDbCircle
 10
599.8497159067956
 20
-9.5
 30
0.0
 40
20.0
100
AcDbArc
 50
90.0
 51
139.4616934499015
  0
LINE
  5
182A
330
17EF
100
AcDbEntity
  8
0
 62
     7
100
AcDbLine
 10
606.5452481915417
 20
6.787101521731528
 30
0.0
 11
592.7426081809207
 21
-5.64085136581707
 31
0.0
  0
LINE
  5
182B
330
17EF
100
AcDbEntity
  8
0
 62
     7
100
AcDbLine
 10
605.75
 20
23.5
 30
0.0
 11
581.2421307855365
 21
23.5
 31
0.0
  0
ARC
  5
182C
330
17EF
100
AcDbEntity
  8
0
 62
     7
100
AcDbCircle
 10
594.8799999999973
 20
-8.370000000002619
 30
0.0
 40
2.129999999999999
100
AcDbArc
 50
131.9999999999019
 51
270.0
  0
LINE
  5
182D
330
17EF
100
AcDbEntity
  8
0
 62
     7
100
AcDbLine
 10
605.25
 20
12.5
 30
0.0
 11
584.8620552002684
 21
12.5
 31
0.0
  0
LINE
  5
182E
330
17EF
100
AcDbEntity
  8
0
 62
     4
100
AcDbLine
 10
610.0
 20
0.0
 30
0.0
 11
590.0
 21
0.0
 31
0.0
  0
LINE
  5
182F
330
17EF
100
AcDbEntity
  8
0
 62
     7
100
AcDbLine
 10
582.2499999999999
 20
-3.000437081158452
 30
0.0
 11
582.2499999999999
 21
-11.5
 31
0.0
  0
ARC
  5
1830
330
17EF
100
AcDbEntity
  8
0
 62
     7
100
AcDbCircle
 10
592.25
 20
-3.000437081158452
 30
0.0
 40
10.0
100
AcDbArc
 50
139.4616934499115
 51
180.0
  0
ARC
  5
1831
330
17EF
100
AcDbEntity
  8
0
 62
     7
100
AcDbCircle
 10
594.7499999999999
 20
-7.87028584224754
 30
0.0
 40
3.0
100
AcDbArc
 50
132.0000000000492
 51
180.0
  0
LINE
  5
1832
330
17EF
100
AcDbEntity
  8
0
 62
     7
100
AcDbLine
 10
591.75
 20
-7.87028584224754
 30
0.0
 11
591.75
 21
-9.5
 31
0.0
  0
ARC
  5
1833
330
17EF
100
AcDbEntity
  8
0
 62
     7
100
AcDbCircle
 10
581.2421307855365
 20
11.5
 30
0.0
 40
12.0
100
AcDbArc
 50
90.0
 51
174.2890000000013
  0
ARC
  5
1834
330
17EF
100
AcDbEntity
  8
0
 62
     7
100
AcDbCircle
 10
584.8620552002684
 20
7.5
 30
0.0
 40
5.0
100
AcDbArc
 50
90.0
 51
174.2889999999754
  0
LINE
  5
1835
330
17EF
100
AcDbEntity
  8
0
 62
     7
100
AcDbLine
 10
599.8497159067956
 20
10.5
 30
0.0
 11
605.1199999999989
 21
10.5
 31
0.0
  0
ARC
  5
1836
330
17EF
100
AcDbEntity
  8
0
 62
     7
100
AcDbCircle
 10
605.1199999999989
 20
8.369999999998981
 30
0.0
 40
2.129999999999999
100
AcDbArc
 50
311.9999999999668
 51
90.0
  0
LINE
  5
1837
330
17EF
100
AcDbEntity
  8
0
 62
     7
100
AcDbLine
 10
622.8589022046326
 20
19.45822678693366
 30
0.0
 11
620.1131272177299
 21
-7.997553924338717
 31
0.0
  0
ARC
  5
1838
330
17EF
100
AcDbEntity
  8
0
 62
     7
100
AcDbCircle
 10
647.734814294632
 20
16.97045716524735
 30
0.0
 40
25.0
100
AcDbArc
 50
158.0826489440028
 51
174.2889999999884
  0
ARC
  5
1839
330
17EF
100
AcDbEntity
  8
0
 62
     7
100
AcDbCircle
 10
605.75
 20
11.5
 30
0.0
 40
12.0
100
AcDbArc
 50
0.0
 51
90.0
  0
LINE
  5
183A
330
17EF
100
AcDbEntity
  8
0
 62
     7
100
AcDbLine
 10
617.75
 20
3.000437081158452
 30
0.0
 11
617.75
 21
11.5
 31
0.0
  0
ARC
  5
183B
330
17EF
100
AcDbEntity
  8
0
 62
     7
100
AcDbCircle
 10
607.75
 20
3.000437081158452
 30
0.0
 40
10.0
100
AcDbArc
 50
319.4616934498846
 51
0.0
  0
LINE
  5
183C
330
17EF
100
AcDbEntity
  8
0
 62
     7
100
AcDbLine
 10
600.1502840932007
 20
-10.5
 30
0.0
 11
594.8799999999973
 21
-10.5
 31
0.0
  0
LINE
  5
183D
330
17EF
100
AcDbEntity
  8
0
 62
     7
100
AcDbLine
 10
593.4547518084546
 20
-6.787101521731528
 30
0.0
 11
607.2573918190755
 21
5.64085136581707
 31
0.0
  0
ARC
  5
183E
330
17EF
100
AcDbEntity
  8
0
 62
     7
100
AcDbCircle
 10
605.25
 20
7.87028584224754
 30
0.0
 40
3.0
100
AcDbArc
 50
312.0000000000124
 51
0.0
  0
LINE
  5
183F
330
17EF
100
AcDbEntity
  8
0
 62
     7
100
AcDbLine
 10
608.25
 20
7.87028584224754
 30
0.0
 11
608.25
 21
9.5
 31
0.0
  0
ARC
  5
1840
330
17EF
100
AcDbEntity
  8
0
 62
     7
100
AcDbCircle
 10
605.25
 20
9.5
 30
0.0
 40
3.0
100
AcDbArc
 50
0.0
 51
90.0
  0
LINE
  5
1841
330
17EF
100
AcDbEntity
  8
0
 62
     4
100
AcDbLine
 10
600.0
 20
-10.0
 30
0.0
 11
600.0
 21
10.0
 31
0.0
  0
ARC
  5
1842
330
17EF
100
AcDbEntity
  8
0
 62
     7
100
AcDbCircle
 10
658.5243664159897
 20
14.31745831795706
 30
0.0
 40
25.0
100
AcDbArc
 50
158.0826489440028
 51
174.2890000000013
  0
ARC
  5
1843
330
17EF
100
AcDbEntity
  8
0
 62
     7
100
AcDbCircle
 10
729.167926550308
 20
176.5
 30
0.0
 40
30.0
100
AcDbArc
 50
90.0
 51
158.0826489440028
  0
ARC
  5
1844
330
17EF
100
AcDbEntity
  8
0
 62
     7
100
AcDbCircle
 10
721.7789604043755
 20
201.0
 30
0.0
 40
25.0
100
AcDbArc
 50
90.0
 51
158.0826489440028
  0
LINE
  5
1845
330
17EF
100
AcDbEntity
  8
0
 62
     7
100
AcDbLine
 10
1177.141097795364
 20
19.45822678693366
 30
0.0
 11
1179.886872782266
 21
-7.997553924338717
 31
0.0
  0
LINE
  5
1846
330
17EF
100
AcDbEntity
  8
0
 62
     7
100
AcDbLine
 10
1164.668715042149
 20
23.6491769418717
 30
0.0
 11
1098.663771199459
 21
187.6980623486997
 31
0.0
  0
LINE
  5
1847
330
17EF
100
AcDbEntity
  8
0
 62
     7
100
AcDbLine
 10
1175.458267163507
 20
26.30217578916199
 30
0.0
 11
1101.414121053764
 21
210.3317186239146
 31
0.0
  0
ARC
  5
1848
330
17EF
100
AcDbEntity
  8
0
 62
     7
100
AcDbCircle
 10
1141.475633584007
 20
14.31745831795706
 30
0.0
 40
25.0
100
AcDbArc
 50
5.710999999998601
 51
21.91735105599716
  0
ARC
  5
1849
330
17EF
100
AcDbEntity
  8
0
 62
     7
100
AcDbCircle
 10
1152.265185705364
 20
16.97045716524735
 30
0.0
 40
25.0
100
AcDbArc
 50
5.711000000011564
 51
21.91735105599716
  0
LINE
  5
184A
330
17EF
100
AcDbEntity
  8
0
 62
     7
100
AcDbLine
 10
1070.832073449688
 20
206.4999999999999
 30
0.0
 11
900.0
 21
206.4999999999999
 31
0.0
  0
LINE
  5
184B
330
17EF
100
AcDbEntity
  8
0
 62
     7
100
AcDbLine
 10
1078.22103959562
 20
226.0
 30
0.0
 11
900.0
 21
226.0
 31
0.0
  0
ARC
  5
184C
330
17EF
100
AcDbEntity
  8
0
 62
     7
100
AcDbCircle
 10
1070.832073449688
 20
176.5
 30
0.0
 40
30.0
100
AcDbArc
 50
21.91735105599716
 51
90.0
  0
ARC
  5
184D
330
17EF
100
AcDbEntity
  8
0
 62
     7
100
AcDbCircle
 10
1078.22103959562
 20
201.0
 30
0.0
 40
25.0
100
AcDbArc
 50
21.91735105598507
 51
90.0
  0
ARC
  5
184E
330
17EF
100
AcDbEntity
  8
0
 62
     7
100
AcDbCircle
 10
1207.75
 20
-3.000437081158452
 30
0.0
 40
10.0
100
AcDbArc
 50
0.0
 51
40.53830655009841
  0
LINE
  5
184F
330
17EF
100
AcDbEntity
  8
0
 62
     7
100
AcDbLine
 10
1217.75
 20
-3.000437081158452
 30
0.0
 11
1217.75
 21
-11.5
 31
0.0
  0
ARC
  5
1850
330
17EF
100
AcDbEntity
  8
0
 62
     7
100
AcDbCircle
 10
1200.150284093201
 20
-9.5
 30
0.0
 40
20.0
100
AcDbArc
 50
40.53830655009841
 51
90.0
  0
LINE
  5
1851
330
17EF
100
AcDbEntity
  8
0
 62
     7
100
AcDbLine
 10
1200.150284093201
 20
10.5
 30
0.0
 11
1194.879999999997
 21
10.5
 31
0.0
  0
ARC
  5
1852
330
17EF
100
AcDbEntity
  8
0
 62
     7
100
AcDbCircle
 10
1194.879999999997
 20
8.369999999998981
 30
0.0
 40
2.129999999999999
100
AcDbArc
 50
90.0
 51
228.0000000000331
  0
LINE
  5
1853
330
17EF
100
AcDbEntity
  8
0
 62
     7
100
AcDbLine
 10
1193.454751808455
 20
6.787101521731528
 30
0.0
 11
1207.257391819076
 21
-5.64085136581707
 31
0.0
  0
ARC
  5
1854
330
17EF
100
AcDbEntity
  8
0
 62
     7
100
AcDbCircle
 10
1205.25
 20
-7.87028584224754
 30
0.0
 40
3.0
100
AcDbArc
 50
0.0
 51
47.9999999999876
  0
LINE
  5
1855
330
17EF
100
AcDbEntity
  8
0
 62
     7
100
AcDbLine
 10
1208.25
 20
-7.87028584224754
 30
0.0
 11
1208.25
 21
-9.5
 31
0.0
  0
LINE
  5
1856
330
17EF
100
AcDbEntity
  8
0
 62
     4
100
AcDbLine
 10
1200.0
 20
10.0
 30
0.0
 11
1200.0
 21
-10.0
 31
0.0
  0
LINE
  5
1857
330
17EF
100
AcDbEntity
  8
0
 62
     4
100
AcDbLine
 10
1210.0
 20
0.0
 30
0.0
 11
1190.0
 21
0.0
 31
0.0
  0
ENDBLK
  5
17F1
330
17EF
100
AcDbEntity
  8
0
100
AcDbBlockEnd
  0
ENDSEC
  0
SECTION
  2
ENTITIES
  0
INSERT
  5
1858
330
1F
100
AcDbEntity
  8
0
100
AcDbBlockReference
  2
pu32d
 10
3006.241977412912
 20
1787.582962332882
 30
0.0
  0
VIEWPORT
  5
6A
330
1B
100
AcDbEntity
 67
     1
  8
0
100
AcDbViewport
 10
144.2296600341796
 20
98.97533035278321
 30
0.0
 40
348.3547377345459
 41
222.1517806396484
 68
     1
 69
     1
 12
144.2296600341796
 22
98.97533035278321
 13
0.0
 23
0.0
 14
10.0
 24
10.0
 15
10.0
 25
10.0
 16
0.0
 26
0.0
 36
1.0
 17
0.0
 27
0.0
 37
0.0
 42
50.0
 43
0.0
 44
0.0
 45
222.1517806396484
 50
0.0
 51
0.0
 72
   100
 90
    32800
  1

281
     0
 71
     1
 74
     0
110
0.0
120
0.0
130
0.0
111
1.0
121
0.0
131
0.0
112
0.0
122
1.0
132
0.0
 79
     0
146
0.0
  0
VIEWPORT
  5
6C
330
1B
100
AcDbEntity
 67
     1
  8
0
100
AcDbViewport
 10
144.2296578884124
 20
98.97533607482911
 30
0.0
 40
230.7674526214599
 41
158.3605377197265
 68
     2
 69
     2
 12
471.9925402099685
 22
207.0118385025535
 13
0.0
 23
0.0
 14
10.0
 24
10.0
 15
10.0
 25
10.0
 16
0.0
 26
0.0
 36
1.0
 17
0.0
 27
0.0
 37
0.0
 42
50.0
 43
0.0
 44
0.0
 45
537.2024815614429
 50
0.0
 51
0.0
 72
   100
 90
    32864
  1

281
     0
 71
     1
 74
     0
110
330.2484756222961
120
239.5669321729576
130
0.0
111
1.0
121
0.0
131
0.0
112
0.0
122
1.0
132
0.0
 79
     0
146
0.0
  0
ENDSEC
  0
SECTION
  2
OBJECTS
  0
DICTIONARY
  5
C
330
0
100
AcDbDictionary
281
     1
  3
ACAD_GROUP
350
D
  3
ACAD_LAYOUT
350
1A
  3
ACAD_MLINESTYLE
350
17
  3
ACAD_PLOTSETTINGS
350
19
  3
ACAD_PLOTSTYLENAME
350
E
  3
AcDbVariableDictionary
350
44
  0
DICTIONARY
  5
2B
330
2
100
AcDbDictionary
280
     1
281
     1
  3
ACAD_LAYERFILTERS
360
2C
  0
DICTIONARY
  5
D
102
{ACAD_REACTORS
330
C
102
}
330
C
100
AcDbDictionary
281
     1
  0
DICTIONARY
  5
1A
102
{ACAD_REACTORS
330
C
102
}
330
C
100
AcDbDictionary
281
     1
  3
Layout1
350
1E
  3
Model
350
22
  0
DICTIONARY
  5
17
102
{ACAD_REACTORS
330
C
102
}
330
C
100
AcDbDictionary
281
     1
  3
Standard
350
18
  0
DICTIONARY
  5
19
102
{ACAD_REACTORS
330
C
102
}
330
C
100
AcDbDictionary
281
     1
  0
ACDBDICTIONARYWDFLT
  5
E
102
{ACAD_REACTORS
330
C
102
}
330
C
100
AcDbDictionary
281
     1
  3
Normal
350
F
100
AcDbDictionaryWithDefault
340
F
  0
DICTIONARY
  5
44
102
{ACAD_REACTORS
330
C
102
}
330
C
100
AcDbDictionary
281
     1
  3
DIMASSOC
350
46
  3
HIDETEXT
350
45
  0
DICTIONARY
  5
2C
102
{ACAD_REACTORS
330
2B
102
}
330
2B
100
AcDbDictionary
280
     1
281
     1
  3
GEO
360
2D
  3
RAK
360
2E
  3
RAK&GEO
360
2F
  0
LAYOUT
  5
1E
102
{ACAD_REACTORS
330
1A
102
}
330
1A
100
AcDbPlotSettings
  1

  2
\\AOBSRV1\FIN9
  4
A4
  6

 40
6.011333465576171
 41
4.233341693878173
 42
6.011322021484375
 43
4.23333740234375
 44
209.9733276367187
 45
296.9259948730469
 46
0.0
 47
0.0
 48
0.0
 49
0.0
140
0.0
141
0.0
142
1.0
143
1.0
 70
   688
 72
     1
 73
     1
 74
     5
  7

 75
    16
147
1.0
148
0.0
149
0.0
100
AcDbLayout
  1
Layout1
 70
     1
 71
     1
 10
-4.23333740234375
 20
-6.011333465576171
 11
292.6926574707031
 21
203.9619941711425
 12
0.0
 22
0.0
 32
0.0
 14
28.8459315776825
 24
19.79506721496582
 34
0.0
 15
259.6133841991424
 25
178.1556049346923
 35
0.0
146
0.0
 13
0.0
 23
0.0
 33
0.0
 16
1.0
 26
0.0
 36
0.0
 17
0.0
 27
1.0
 37
0.0
 76
     0
330
1B
331
6A
  0
LAYOUT
  5
22
102
{ACAD_REACTORS
330
1A
102
}
330
1A
100
AcDbPlotSettings
  1

  2
\\AOBSRV1\FIN9
  4

  6

 40
0.0
 41
0.0
 42
0.0
 43
0.0
 44
0.0
 45
0.0
 46
0.0
 47
0.0
 48
0.0
 49
0.0
140
0.0
141
0.0
142
1.0
143
1.0
 70
  1712
 72
     0
 73
     0
 74
     0
  7

 75
     0
147
1.0
148
0.0
149
0.0
100
AcDbLayout
  1
Model
 70
     1
 71
     0
 10
0.0
 20
0.0
 11
12.0
 21
9.0
 12
0.0
 22
0.0
 32
0.0
 14
0.0
 24
0.0
 34
0.0
 15
0.0
 25
0.0
 35
0.0
146
0.0
 13
0.0
 23
0.0
 33
0.0
 16
1.0
 26
0.0
 36
0.0
 17
0.0
 27
1.0
 37
0.0
 76
     0
330
1F
  0
MLINESTYLE
  5
18
102
{ACAD_REACTORS
330
17
102
}
330
17
100
AcDbMlineStyle
  2
STANDARD
 70
     0
  3

 62
   256
 51
90.0
 52
90.0
 71
     2
 49
0.5
 62
   256
  6
BYLAYER
 49
-0.5
 62
   256
  6
BYLAYER
  0
ACDBPLACEHOLDER
  5
F
102
{ACAD_REACTORS
330
E
102
}
330
E
  0
DICTIONARYVAR
  5
46
102
{ACAD_REACTORS
330
44
102
}
330
44
100
DictionaryVariables
280
     0
  1
2
  0
DICTIONARYVAR
  5
45
102
{ACAD_REACTORS
330
44
102
}
330
44
100
DictionaryVariables
280
     0
  1
1
  0
XRECORD
  5
2D
102
{ACAD_REACTORS
330
2C
102
}
330
2C
100
AcDbXrecord
280
     1
  1
GEO
  1
GEO-*
  1
*
  1
*
 70
     0
  1
*
  1
*
  0
XRECORD
  5
2E
102
{ACAD_REACTORS
330
2C
102
}
330
2C
100
AcDbXrecord
280
     1
  1
RAK
  1
RAK-*
  1
*
  1
*
 70
     0
  1
*
  1
*
  0
XRECORD
  5
2F
102
{ACAD_REACTORS
330
2C
102
}
330
2C
100
AcDbXrecord
280
     1
  1
RAK&GEO
  1
RAK-*,GEO-*
  1
*
  1
*
 70
     0
  1
*
  1
*
  0
ENDSEC
  0
EOF
