  0
SECTION
  2
HEADER
  9
$ACADVER
  1
AC1015
  9
$ACADMAINTVER
 70
    14
  9
$DWGCODEPAGE
  3
ANSI_1252
  9
$INSBASE
 10
0.0
 20
0.0
 30
0.0
  9
$EXTMIN
 10
900.1987131030841
 20
-763.9133767728575
 30
-0.0000000003672348
  9
$EXTMAX
 10
2400.22925706013
 20
-489.8777981538956
 30
-0.0000000003672348
  9
$LIMMIN
 10
0.0
 20
0.0
  9
$LIMMAX
 10
420.0
 20
297.0
  9
$ORTHOMODE
 70
     0
  9
$REGENMODE
 70
     1
  9
$FILLMODE
 70
     1
  9
$QTEXTMODE
 70
     0
  9
$MIRRTEXT
 70
     1
  9
$LTSCALE
 40
1.0
  9
$ATTMODE
 70
     1
  9
$TEXTSIZE
 40
2.5
  9
$TRACEWID
 40
1.0
  9
$TEXTSTYLE
  7
Standard
  9
$CLAYER
  8
PAZ4450
  9
$CELTYPE
  6
ByLayer
  9
$CECOLOR
 62
   256
  9
$CELTSCALE
 40
1.0
  9
$DISPSILH
 70
     0
  9
$DIMSCALE
 40
1.0
  9
$DIMASZ
 40
2.5
  9
$DIMEXO
 40
0.625
  9
$DIMDLI
 40
3.75
  9
$DIMRND
 40
0.0
  9
$DIMDLE
 40
0.0
  9
$DIMEXE
 40
1.25
  9
$DIMTP
 40
0.0
  9
$DIMTM
 40
0.0
  9
$DIMTXT
 40
2.5
  9
$DIMCEN
 40
2.5
  9
$DIMTSZ
 40
0.0
  9
$DIMTOL
 70
     0
  9
$DIMLIM
 70
     0
  9
$DIMTIH
 70
     0
  9
$DIMTOH
 70
     0
  9
$DIMSE1
 70
     0
  9
$DIMSE2
 70
     0
  9
$DIMTAD
 70
     1
  9
$DIMZIN
 70
     8
  9
$DIMBLK
  1

  9
$DIMASO
 70
     1
  9
$DIMSHO
 70
     1
  9
$DIMPOST
  1

  9
$DIMAPOST
  1

  9
$DIMALT
 70
     0
  9
$DIMALTD
 70
     3
  9
$DIMALTF
 40
0.03937007874016
  9
$DIMLFAC
 40
1.0
  9
$DIMTOFL
 70
     1
  9
$DIMTVP
 40
0.0
  9
$DIMTIX
 70
     0
  9
$DIMSOXD
 70
     0
  9
$DIMSAH
 70
     0
  9
$DIMBLK1
  1

  9
$DIMBLK2
  1

  9
$DIMSTYLE
  2
ISO-25
  9
$DIMCLRD
 70
     0
  9
$DIMCLRE
 70
     0
  9
$DIMCLRT
 70
     0
  9
$DIMTFAC
 40
1.0
  9
$DIMGAP
 40
0.625
  9
$DIMJUST
 70
     0
  9
$DIMSD1
 70
     0
  9
$DIMSD2
 70
     0
  9
$DIMTOLJ
 70
     0
  9
$DIMTZIN
 70
     8
  9
$DIMALTZ
 70
     0
  9
$DIMALTTZ
 70
     0
  9
$DIMUPT
 70
     0
  9
$DIMDEC
 70
     2
  9
$DIMTDEC
 70
     2
  9
$DIMALTU
 70
     2
  9
$DIMALTTD
 70
     3
  9
$DIMTXSTY
  7
Standard
  9
$DIMAUNIT
 70
     0
  9
$DIMADEC
 70
     0
  9
$DIMALTRND
 40
0.0
  9
$DIMAZIN
 70
     0
  9
$DIMDSEP
 70
    44
  9
$DIMATFIT
 70
     3
  9
$DIMFRAC
 70
     0
  9
$DIMLDRBLK
  1

  9
$DIMLUNIT
 70
     2
  9
$DIMLWD
 70
    -2
  9
$DIMLWE
 70
    -2
  9
$DIMTMOVE
 70
     0
  9
$LUNITS
 70
     2
  9
$LUPREC
 70
     4
  9
$SKETCHINC
 40
1.0
  9
$FILLETRAD
 40
10.0
  9
$AUNITS
 70
     0
  9
$AUPREC
 70
     0
  9
$MENU
  1
.
  9
$ELEVATION
 40
0.0
  9
$PELEVATION
 40
0.0
  9
$THICKNESS
 40
0.0
  9
$LIMCHECK
 70
     0
  9
$CHAMFERA
 40
10.0
  9
$CHAMFERB
 40
10.0
  9
$CHAMFERC
 40
20.0
  9
$CHAMFERD
 40
0.0
  9
$SKPOLY
 70
     0
  9
$TDCREATE
 40
2452984.401453715
  9
$TDUCREATE
 40
2452984.359787048
  9
$TDUPDATE
 40
2452989.717887454
  9
$TDUUPDATE
 40
2452989.676220787
  9
$TDINDWG
 40
0.0326085417
  9
$TDUSRTIMER
 40
0.0326083565
  9
$USRTIMER
 70
     1
  9
$ANGBASE
 50
0.0
  9
$ANGDIR
 70
     0
  9
$PDMODE
 70
     0
  9
$PDSIZE
 40
0.0
  9
$PLINEWID
 40
0.0
  9
$SPLFRAME
 70
     0
  9
$SPLINETYPE
 70
     6
  9
$SPLINESEGS
 70
     8
  9
$HANDSEED
  5
955
  9
$SURFTAB1
 70
     6
  9
$SURFTAB2
 70
     6
  9
$SURFTYPE
 70
     6
  9
$SURFU
 70
     6
  9
$SURFV
 70
     6
  9
$UCSBASE
  2

  9
$UCSNAME
  2

  9
$UCSORG
 10
916.3569655493889
 20
-744.4605276006268
 30
-0.0000000003672348
  9
$UCSXDIR
 10
1.0
 20
0.0
 30
0.0
  9
$UCSYDIR
 10
0.0
 20
1.0
 30
0.0
  9
$UCSORTHOREF
  2

  9
$UCSORTHOVIEW
 70
     0
  9
$UCSORGTOP
 10
0.0
 20
0.0
 30
0.0
  9
$UCSORGBOTTOM
 10
0.0
 20
0.0
 30
0.0
  9
$UCSORGLEFT
 10
0.0
 20
0.0
 30
0.0
  9
$UCSORGRIGHT
 10
0.0
 20
0.0
 30
0.0
  9
$UCSORGFRONT
 10
0.0
 20
0.0
 30
0.0
  9
$UCSORGBACK
 10
0.0
 20
0.0
 30
0.0
  9
$PUCSBASE
  2

  9
$PUCSNAME
  2

  9
$PUCSORG
 10
0.0
 20
0.0
 30
0.0
  9
$PUCSXDIR
 10
1.0
 20
0.0
 30
0.0
  9
$PUCSYDIR
 10
0.0
 20
1.0
 30
0.0
  9
$PUCSORTHOREF
  2

  9
$PUCSORTHOVIEW
 70
     0
  9
$PUCSORGTOP
 10
0.0
 20
0.0
 30
0.0
  9
$PUCSORGBOTTOM
 10
0.0
 20
0.0
 30
0.0
  9
$PUCSORGLEFT
 10
0.0
 20
0.0
 30
0.0
  9
$PUCSORGRIGHT
 10
0.0
 20
0.0
 30
0.0
  9
$PUCSORGFRONT
 10
0.0
 20
0.0
 30
0.0
  9
$PUCSORGBACK
 10
0.0
 20
0.0
 30
0.0
  9
$USERI1
 70
     0
  9
$USERI2
 70
     0
  9
$USERI3
 70
     0
  9
$USERI4
 70
     0
  9
$USERI5
 70
     0
  9
$USERR1
 40
0.0
  9
$USERR2
 40
0.0
  9
$USERR3
 40
0.0
  9
$USERR4
 40
0.0
  9
$USERR5
 40
0.0
  9
$WORLDVIEW
 70
     1
  9
$SHADEDGE
 70
     3
  9
$SHADEDIF
 70
    70
  9
$TILEMODE
 70
     1
  9
$MAXACTVP
 70
    64
  9
$PINSBASE
 10
0.0
 20
0.0
 30
0.0
  9
$PLIMCHECK
 70
     0
  9
$PEXTMIN
 10
28.8459315776825
 20
19.79506721496582
 30
0.0
  9
$PEXTMAX
 10
259.6133841991424
 20
178.1556049346923
 30
0.0
  9
$PLIMMIN
 10
-4.23333740234375
 20
-6.011333465576171
  9
$PLIMMAX
 10
292.6926574707031
 20
203.9619941711425
  9
$UNITMODE
 70
     0
  9
$VISRETAIN
 70
     1
  9
$PLINEGEN
 70
     0
  9
$PSLTSCALE
 70
     1
  9
$TREEDEPTH
 70
  3020
  9
$CMLSTYLE
  2
Standard
  9
$CMLJUST
 70
     0
  9
$CMLSCALE
 40
20.0
  9
$PROXYGRAPHICS
 70
     1
  9
$MEASUREMENT
 70
     1
  9
$CELWEIGHT
370
    -1
  9
$ENDCAPS
280
     0
  9
$JOINSTYLE
280
     0
  9
$LWDISPLAY
290
     0
  9
$INSUNITS
 70
     4
  9
$HYPERLINKBASE
  1

  9
$STYLESHEET
  1

  9
$XEDIT
290
     1
  9
$CEPSNTYPE
380
     0
  9
$PSTYLEMODE
290
     1
  9
$FINGERPRINTGUID
  2
{1F0C9108-7A24-43FE-92C0-F61D6143634A}
  9
$VERSIONGUID
  2
{995AD05C-8328-45F5-8448-B71B9F76A3DA}
  9
$EXTNAMES
290
     1
  9
$PSVPSCALE
 40
0.0
  9
$OLESTARTUP
290
     0
  0
ENDSEC
  0
SECTION
  2
CLASSES
  0
CLASS
  1
ACDBDICTIONARYWDFLT
  2
AcDbDictionaryWithDefault
  3
AutoCAD 2000
 90
        0
280
     0
281
     0
  0
CLASS
  1
ACDBPLACEHOLDER
  2
AcDbPlaceHolder
  3
AutoCAD 2000
 90
        0
280
     0
281
     0
  0
CLASS
  1
LAYOUT
  2
AcDbLayout
  3
AutoCAD 2000
 90
        0
280
     0
281
     0
  0
CLASS
  1
DICTIONARYVAR
  2
AcDbDictionaryVar
  3
AutoCAD 2000
 90
        0
280
     0
281
     0
  0
ENDSEC
  0
SECTION
  2
TABLES
  0
TABLE
  2
VPORT
  5
8
330
0
100
AcDbSymbolTable
 70
     2
  0
VPORT
  5
954
330
8
100
AcDbSymbolTableRecord
100
AcDbViewportTableRecord
  2
*Active
 70
     0
 10
0.0
 20
0.0
 11
1.0
 21
1.0
 12
1693.242258055716
 22
-626.8717153510745
 13
0.0
 23
0.0
 14
10.0
 24
10.0
 15
10.0
 25
10.0
 16
0.0
 26
0.0
 36
1.0
 17
0.0
 27
0.0
 37
0.0
 40
1010.399117407338
 41
1.577464788732394
 42
50.0
 43
0.0
 44
0.0
 50
0.0
 51
0.0
 71
     0
 72
   100
 73
     1
 74
     3
 75
     0
 76
     0
 77
     0
 78
     0
281
     0
 65
     1
110
916.3569655493889
120
-744.4605276006268
130
-0.0000000003672348
111
1.0
121
0.0
131
0.0
112
0.0
122
1.0
132
0.0
 79
     0
146
0.0
  0
ENDTAB
  0
TABLE
  2
LTYPE
  5
5
330
0
100
AcDbSymbolTable
 70
     1
  0
LTYPE
  5
14
330
5
100
AcDbSymbolTableRecord
100
AcDbLinetypeTableRecord
  2
ByBlock
 70
     0
  3

 72
    65
 73
     0
 40
0.0
  0
LTYPE
  5
15
330
5
100
AcDbSymbolTableRecord
100
AcDbLinetypeTableRecord
  2
ByLayer
 70
     0
  3

 72
    65
 73
     0
 40
0.0
  0
LTYPE
  5
16
330
5
100
AcDbSymbolTableRecord
100
AcDbLinetypeTableRecord
  2
Continuous
 70
     0
  3
Solid line
 72
    65
 73
     0
 40
0.0
  0
ENDTAB
  0
TABLE
  2
LAYER
  5
2
102
{ACAD_XDICTIONARY
360
2B
102
}
330
0
100
AcDbSymbolTable
 70
     2
  0
LAYER
  5
10
330
2
100
AcDbSymbolTableRecord
100
AcDbLayerTableRecord
  2
0
 70
     0
 62
     7
  6
Continuous
370
    -3
390
F
  0
LAYER
  5
B3
330
2
100
AcDbSymbolTableRecord
100
AcDbLayerTableRecord
  2
PAZ4450
 70
     0
 62
     7
  6
Continuous
370
    -3
390
F
  0
ENDTAB
  0
TABLE
  2
STYLE
  5
3
330
0
100
AcDbSymbolTable
 70
     1
  0
STYLE
  5
11
330
3
100
AcDbSymbolTableRecord
100
AcDbTextStyleTableRecord
  2
Standard
 70
     0
 40
0.0
 41
1.0
 50
0.0
 71
     0
 42
2.5
  3
txt
  4

  0
ENDTAB
  0
TABLE
  2
VIEW
  5
6
330
0
100
AcDbSymbolTable
 70
     0
  0
ENDTAB
  0
TABLE
  2
UCS
  5
7
330
0
100
AcDbSymbolTable
 70
     0
  0
ENDTAB
  0
TABLE
  2
APPID
  5
9
330
0
100
AcDbSymbolTable
 70
     1
  0
APPID
  5
12
330
9
100
AcDbSymbolTableRecord
100
AcDbRegAppTableRecord
  2
ACAD
 70
     0
  0
ENDTAB
  0
TABLE
  2
DIMSTYLE
  5
A
330
0
100
AcDbSymbolTable
 70
     1
100
AcDbDimStyleTable
 71
     0
  0
DIMSTYLE
105
27
330
A
100
AcDbSymbolTableRecord
100
AcDbDimStyleTableRecord
  2
ISO-25
 70
     0
 41
2.5
 42
0.625
 43
3.75
 44
1.25
 73
     0
 74
     0
 77
     1
 78
     8
140
2.5
141
2.5
143
0.03937007874016
147
0.625
171
     3
172
     1
271
     2
272
     2
274
     3
278
    44
283
     0
284
     8
340
11
  0
ENDTAB
  0
TABLE
  2
BLOCK_RECORD
  5
1
330
0
100
AcDbSymbolTable
 70
     1
  0
BLOCK_RECORD
  5
1F
330
1
100
AcDbSymbolTableRecord
100
AcDbBlockTableRecord
  2
*Model_Space
340
22
  0
BLOCK_RECORD
  5
1B
330
1
100
AcDbSymbolTableRecord
100
AcDbBlockTableRecord
  2
*Paper_Space
340
1E
  0
BLOCK_RECORD
  5
8F5
330
1
100
AcDbSymbolTableRecord
100
AcDbBlockTableRecord
  2
paz4450
340
0
310
2800000020000000200000000100080000000000000400000000000000000000000000000000000000000000000080000080000000808000800000008000800080800000C0C0C000C0DCC000F0CAA6000020400000206000002080000020A0000020C0000020E00000400000004020000040400000406000004080000040A0
310
000040C0000040E00000600000006020000060400000606000006080000060A0000060C0000060E00000800000008020000080400000806000008080000080A0000080C0000080E00000A0000000A0200000A0400000A0600000A0800000A0A00000A0C00000A0E00000C0000000C0200000C0400000C0600000C0800000C0
310
A00000C0C00000C0E00000E0000000E0200000E0400000E0600000E0800000E0A00000E0C00000E0E00040000000400020004000400040006000400080004000A0004000C0004000E00040200000402020004020400040206000402080004020A0004020C0004020E000404000004040200040404000404060004040800040
310
40A0004040C0004040E00040600000406020004060400040606000406080004060A0004060C0004060E00040800000408020004080400040806000408080004080A0004080C0004080E00040A0000040A0200040A0400040A0600040A0800040A0A00040A0C00040A0E00040C0000040C0200040C0400040C0600040C08000
310
40C0A00040C0C00040C0E00040E0000040E0200040E0400040E0600040E0800040E0A00040E0C00040E0E00080000000800020008000400080006000800080008000A0008000C0008000E00080200000802020008020400080206000802080008020A0008020C0008020E00080400000804020008040400080406000804080
310
008040A0008040C0008040E00080600000806020008060400080606000806080008060A0008060C0008060E00080800000808020008080400080806000808080008080A0008080C0008080E00080A0000080A0200080A0400080A0600080A0800080A0A00080A0C00080A0E00080C0000080C0200080C0400080C0600080C0
310
800080C0A00080C0C00080C0E00080E0000080E0200080E0400080E0600080E0800080E0A00080E0C00080E0E000C0000000C0002000C0004000C0006000C0008000C000A000C000C000C000E000C0200000C0202000C0204000C0206000C0208000C020A000C020C000C020E000C0400000C0402000C0404000C0406000C0
310
408000C040A000C040C000C040E000C0600000C0602000C0604000C0606000C0608000C060A000C060C000C060E000C0800000C0802000C0804000C0806000C0808000C080A000C080C000C080E000C0A00000C0A02000C0A04000C0A06000C0A08000C0A0A000C0A0C000C0A0E000C0C00000C0C02000C0C04000C0C06000
310
C0C08000C0C0A000F0FBFF00A4A0A000808080000000FF0000FF000000FFFF00FF000000FF00FF00FFFF0000FFFFFF0000000000000000000000000000000000000000000000000000000000000000000000000000000000000000000000000000000000000000000000000000000000000000000000000000000000000000
310
00000000000000000000000000000000000000000000000000000000000000000000000000000000000000000000000000000000000000000000000000000000000000000000000000000000000000000000000000000000000000000000000000000000000000000000000000000000000000000000000000000000000000
310
00000000000000000000000000000000000000000000000000000000000000000000000000000000000000000000000000000000000000000000000000000000000000000000000000000000000000000000000000000000000000000000000000000000000000000000000000000000000000000000000000000000000000
310
000000000000000000000000000000000000000000000000000000000000000000000000000000000000000000000000000000000000000000000000000000000000000000000000000000000000000000000000FEFFFFFFFFFF000000000000000000000000000000000000FFFFFFFFFFFF0000000000000000FF00000000
310
000000000000000000000000FF00000000FF00000000000000000000FF0000000000000000000000000000FF0000000000000000000000000000000000FF000000000000000000000000FF00000000000000000000000000000000000000FF00000000FFFF00000000FF000000000000000000000000000000000000000000
310
FFFFFFFFFFFFFFFFFFFF000000000000000000000000000000000000000000000000000000000000000000000000000000000000000000000000000000000000000000000000000000000000000000000000000000000000000000000000000000000000000000000000000000000000000000000000000000000000000000
310
00000000000000000000000000000000000000000000000000000000000000000000000000000000000000000000000000000000000000000000000000000000000000000000000000000000000000000000000000000000000000000000000000000000000000000000000000000000000000000000000000000000000000
310
00000000000000000000000000000000000000000000000000000000000000000000000000000000000000000000000000000000000000000000000000000000000000000000000000000000000000000000000000000000000000000000000000000000000000000000000000000000000000000000000000000000000000
310
0000000000000000000000000000000000000000000000000000000000000000000000000000000000000000000000000000000000000000
102
{BLKREFS
331
93C
102
}
1001
ACAD
1000
DesignCenter Data
1002
{
1070
     1
1070
     4
1002
}
  0
ENDTAB
  0
ENDSEC
  0
SECTION
  2
BLOCKS
  0
BLOCK
  5
20
330
1F
100
AcDbEntity
  8
0
100
AcDbBlockBegin
  2
*Model_Space
 70
     0
 10
0.0
 20
0.0
 30
0.0
  3
*Model_Space
  1

  0
ENDBLK
  5
21
330
1F
100
AcDbEntity
  8
0
100
AcDbBlockEnd
  0
BLOCK
  5
1C
330
1B
100
AcDbEntity
 67
     1
  8
0
100
AcDbBlockBegin
  2
*Paper_Space
 70
     0
 10
0.0
 20
0.0
 30
0.0
  3
*Paper_Space
  1

  0
ENDBLK
  5
1D
330
1B
100
AcDbEntity
 67
     1
  8
0
100
AcDbBlockEnd
  0
BLOCK
  5
8F6
330
8F5
100
AcDbEntity
  8
0
100
AcDbBlockBegin
  2
paz4450
 70
     0
 10
0.0
 20
0.0
 30
0.0
  3
paz4450
  1

  0
LINE
  5
8F8
330
8F5
100
AcDbEntity
  8
0
  6
Continuous
 62
     7
100
AcDbLine
 10
517.63311653251
 20
251.8798802745004
 30
0.0
 11
697.5687392751133
 21
251.8798802745004
 31
0.0
  0
LINE
  5
8F9
330
8F5
100
AcDbEntity
  8
0
  6
Continuous
 62
     7
100
AcDbLine
 10
697.5687392751133
 20
246.8798802745004
 30
0.0
 11
517.63311653251
 21
246.8798802745004
 31
0.0
  0
LINE
  5
8FA
330
8F5
100
AcDbEntity
  8
0
  6
Continuous
 62
     7
100
AcDbLine
 10
249.506939847386
 20
-5.892103270321968
 30
0.0
 11
499.9554065612174
 21
244.5575093623992
 31
0.0
  0
ARC
  5
8FB
330
8F5
100
AcDbEntity
  8
0
  6
Continuous
 62
     7
100
AcDbCircle
 10
0.0005102572176838
 20
-3.699489742799414
 30
0.0
 40
8.05051025721835
100
AcDbArc
 50
74.99999999971477
 51
270.0
  0
LINE
  5
8FC
330
8F5
100
AcDbEntity
  8
0
  6
Continuous
 62
     7
100
AcDbLine
 10
275.7200071693077
 20
13.25
 30
0.0
 11
253.0424818417086
 21
-9.427629087900641
 31
0.0
  0
ARC
  5
8FD
330
8F5
100
AcDbEntity
  8
0
  6
Continuous
 62
     7
100
AcDbCircle
 10
0.0005102572176838
 20
-3.699489742799414
 30
0.0
 40
13.050510257217
100
AcDbArc
 50
180.0
 51
270.0
  0
LINE
  5
8FE
330
8F5
100
AcDbEntity
  8
0
  6
Continuous
 62
     4
100
AcDbLine
 10
0.0
 20
10.0
 30
0.0
 11
0.0
 21
-10.0
 31
0.0
  0
LINE
  5
8FF
330
8F5
100
AcDbEntity
  8
0
  6
Continuous
 62
     7
100
AcDbLine
 10
0.0005102572176838
 20
-11.75000000001819
 30
0.0
 11
235.3647718703141
 21
-11.75
 31
0.0
  0
LINE
  5
900
330
8F5
100
AcDbEntity
  8
0
  6
Continuous
 62
     7
100
AcDbLine
 10
235.3647718703141
 20
-16.75
 30
0.0
 11
0.0005102572176838
 21
-16.75
 31
0.0
  0
ARC
  5
901
330
8F5
100
AcDbEntity
  8
0
  6
Continuous
 62
     7
100
AcDbCircle
 10
235.3647718703141
 20
8.25
 30
0.0
 40
20.0
100
AcDbArc
 50
270.0
 51
315.0001310772184
  0
ARC
  5
902
330
8F5
100
AcDbEntity
  8
0
  6
Continuous
 62
     7
100
AcDbCircle
 10
235.3647718703141
 20
8.25
 30
0.0
 40
25.00000000000309
100
AcDbArc
 50
270.0
 51
315.0001310773106
  0
ARC
  5
903
330
8F5
100
AcDbEntity
  8
0
  6
Continuous
 62
     7
100
AcDbCircle
 10
0.0005102572176838
 20
-3.699489742799414
 30
0.0
 40
13.0505102572175
100
AcDbArc
 50
74.99999999999127
 51
180.0
  0
LINE
  5
904
330
8F5
100
AcDbEntity
  8
0
  6
Continuous
 62
     4
100
AcDbLine
 10
10.0
 20
0.0
 30
0.0
 11
-10.0
 21
0.0
 31
0.0
  0
LINE
  5
905
330
8F5
100
AcDbEntity
  8
0
  6
Continuous
 62
     7
100
AcDbLine
 10
3.378230860093026
 20
8.90633516089656
 30
0.0
 11
20.10597711071022
 21
4.424149061798743
 31
0.0
  0
LINE
  5
906
330
8F5
100
AcDbEntity
  8
0
  6
Continuous
 62
     7
100
AcDbLine
 10
18.811881885209
 20
-0.4054800695994345
 30
0.0
 11
2.084135634606354
 21
4.076706029400156
 31
0.0
  0
LINE
  5
907
330
8F5
100
AcDbEntity
  8
0
  6
Continuous
 62
     7
100
AcDbLine
 10
20.10597711071022
 20
4.424149061798743
 30
0.0
 11
18.811881885209
 21
-0.4054800695994345
 31
0.0
  0
LINE
  5
908
330
8F5
100
AcDbEntity
  8
0
  6
Continuous
 62
     7
100
AcDbLine
 10
503.4909485554526
 20
241.0219835448224
 30
0.0
 11
275.7200071693077
 21
13.25
 31
0.0
  0
ARC
  5
909
330
8F5
100
AcDbEntity
  8
0
  6
Continuous
 62
     7
100
AcDbCircle
 10
517.63311653251
 20
226.8798802745004
 30
0.0
 40
25.0
100
AcDbArc
 50
90.0
 51
135.0001310771493
  0
ARC
  5
90A
330
8F5
100
AcDbEntity
  8
0
  6
Continuous
 62
     7
100
AcDbCircle
 10
517.63311653251
 20
226.8798802745004
 30
0.0
 40
20.0
100
AcDbArc
 50
90.0
 51
135.0001310771908
  0
LINE
  5
90B
330
8F5
100
AcDbEntity
  8
0
  6
Continuous
 62
     7
100
AcDbLine
 10
1434.656813511537
 20
-7.432524352569089
 30
0.0
 11
1437.597496211616
 21
3.736970943198684
 31
0.0
  0
LINE
  5
90C
330
8F5
100
AcDbEntity
  8
0
  6
Continuous
 62
     7
100
AcDbLine
 10
1447.608061953709
 20
-4.424149061900607
 30
0.0
 11
1464.335808204312
 21
-8.906335160900198
 31
0.0
  0
ARC
  5
90D
330
8F5
100
AcDbEntity
  8
0
  6
Continuous
 62
     7
100
AcDbCircle
 10
1467.713528807216
 20
3.699489742801233
 30
0.0
 40
13.0505102572179
100
AcDbArc
 50
254.9999999998775
 51
0.0
  0
LINE
  5
90E
330
8F5
100
AcDbEntity
  8
0
  6
Continuous
 62
     7
100
AcDbLine
 10
974.506939847386
 20
241.0219835448224
 30
0.0
 11
1224.955406561217
 21
-9.427629087898822
 31
0.0
  0
LINE
  5
90F
330
8F5
100
AcDbEntity
  8
0
  6
Continuous
 62
     7
100
AcDbLine
 10
1432.76226651702
 20
5.009980684237234
 30
0.0
 11
1429.821583816912
 21
-6.15951461160148
 31
0.0
  0
LINE
  5
910
330
8F5
100
AcDbEntity
  8
0
  6
Continuous
 62
     7
100
AcDbLine
 10
1228.490948555452
 20
-5.892103270321968
 30
0.0
 11
1000.720007169307
 21
221.8798802745004
 31
0.0
  0
LINE
  5
911
330
8F5
100
AcDbEntity
  8
0
  6
Continuous
 62
     4
100
AcDbLine
 10
1450.0
 20
-10.0
 30
0.0
 11
1450.0
 21
10.0
 31
0.0
  0
LINE
  5
912
330
8F5
100
AcDbEntity
  8
0
  6
Continuous
 62
     7
100
AcDbLine
 10
1242.63311653251
 20
-16.75
 30
0.0
 11
1422.568739275113
 21
-16.75
 31
0.0
  0
LINE
  5
913
330
8F5
100
AcDbEntity
  8
0
  6
Continuous
 62
     7
100
AcDbLine
 10
1422.568739275113
 20
-11.75
 30
0.0
 11
1242.63311653251
 21
-11.75
 31
0.0
  0
ARC
  5
914
330
8F5
100
AcDbEntity
  8
0
  6
Continuous
 62
     7
100
AcDbCircle
 10
1242.63311653251
 20
8.25
 30
0.0
 40
25.0
100
AcDbArc
 50
224.9998689228506
 51
270.0
  0
ARC
  5
915
330
8F5
100
AcDbEntity
  8
0
  6
Continuous
 62
     7
100
AcDbCircle
 10
1242.63311653251
 20
8.25
 30
0.0
 40
20.0
100
AcDbArc
 50
224.9998689228091
 51
270.0
  0
ARC
  5
916
330
8F5
100
AcDbEntity
  8
0
  6
Continuous
 62
     7
100
AcDbCircle
 10
1422.568739275113
 20
-4.25
 30
0.0
 40
12.50000000000119
100
AcDbArc
 50
270.0
 51
345.250000000002
  0
ARC
  5
917
330
8F5
100
AcDbEntity
  8
0
  6
Continuous
 62
     7
100
AcDbCircle
 10
1422.568739275113
 20
-4.25
 30
0.0
 40
7.4999999999993
100
AcDbArc
 50
270.0
 51
345.249999999449
  0
LINE
  5
918
330
8F5
100
AcDbEntity
  8
0
  6
Continuous
 62
     7
100
AcDbLine
 10
725.0005102572177
 20
246.8798802745186
 30
0.0
 11
960.3647718703141
 21
246.8798802745004
 31
0.0
  0
LINE
  5
919
330
8F5
100
AcDbEntity
  8
0
  6
Continuous
 62
     7
100
AcDbLine
 10
960.3647718703141
 20
251.8798802745004
 30
0.0
 11
725.0005102572177
 21
251.8798802745004
 31
0.0
  0
ARC
  5
91A
330
8F5
100
AcDbEntity
  8
0
  6
Continuous
 62
     7
100
AcDbCircle
 10
725.0005102572177
 20
238.8293700172998
 30
0.0
 40
13.050510257217
100
AcDbArc
 50
90.0
 51
180.0
  0
ARC
  5
91B
330
8F5
100
AcDbEntity
  8
0
  6
Continuous
 62
     7
100
AcDbCircle
 10
697.5687392751133
 20
239.3798802745004
 30
0.0
 40
12.50000000000119
100
AcDbArc
 50
14.74999999999791
 51
90.0
  0
LINE
  5
91C
330
8F5
100
AcDbEntity
  8
0
  6
Continuous
 62
     7
100
AcDbLine
 10
707.7622665170202
 20
230.1198995902632
 30
0.0
 11
704.8215838169126
 21
241.2893948861019
 31
0.0
  0
ARC
  5
91D
330
8F5
100
AcDbEntity
  8
0
  6
Continuous
 62
     7
100
AcDbCircle
 10
697.5687392751133
 20
239.3798802745004
 30
0.0
 40
7.4999999999993
100
AcDbArc
 50
14.75000000055093
 51
90.0
  0
LINE
  5
91E
330
8F5
100
AcDbEntity
  8
0
  6
Continuous
 62
     7
100
AcDbLine
 10
728.378230860093
 20
226.2235451136039
 30
0.0
 11
745.1059771107102
 21
230.7057312127017
 31
0.0
  0
ARC
  5
91F
330
8F5
100
AcDbEntity
  8
0
  6
Continuous
 62
     7
100
AcDbCircle
 10
725.0005102572177
 20
238.8293700172998
 30
0.0
 40
13.0505102572175
100
AcDbArc
 50
180.0
 51
285.0000000000087
  0
ARC
  5
920
330
8F5
100
AcDbEntity
  8
0
  6
Continuous
 62
     7
100
AcDbCircle
 10
742.7135288072167
 20
231.4303905316992
 30
0.0
 40
8.050510257217869
100
AcDbArc
 50
270.0
 51
105.0000000000892
  0
ARC
  5
921
330
8F5
100
AcDbEntity
  8
0
  6
Continuous
 62
     7
100
AcDbCircle
 10
722.993240054915
 20
234.1298802745004
 30
0.0
 40
10.7499999999999
100
AcDbArc
 50
194.749999999979
 51
270.0
  0
ARC
  5
922
330
8F5
100
AcDbEntity
  8
0
  6
Continuous
 62
     7
100
AcDbCircle
 10
742.7135288072167
 20
231.4303905316992
 30
0.0
 40
13.0505102572179
100
AcDbArc
 50
270.0
 51
0.0
  0
ARC
  5
923
330
8F5
100
AcDbEntity
  8
0
  6
Continuous
 62
     7
100
AcDbCircle
 10
722.993240054915
 20
234.1298802745004
 30
0.0
 40
15.7500000000003
100
AcDbArc
 50
194.7499999999979
 51
270.0
  0
LINE
  5
924
330
8F5
100
AcDbEntity
  8
0
  6
Continuous
 62
     4
100
AcDbLine
 10
725.0
 20
245.1298802745004
 30
0.0
 11
725.0
 21
225.1298802745004
 31
0.0
  0
LINE
  5
925
330
8F5
100
AcDbEntity
  8
0
  6
Continuous
 62
     7
100
AcDbLine
 10
722.993240054915
 20
223.3798802745004
 30
0.0
 11
742.7135288072167
 21
223.3798802745004
 31
0.0
  0
LINE
  5
926
330
8F5
100
AcDbEntity
  8
0
  6
Continuous
 62
     7
100
AcDbLine
 10
742.7135288072167
 20
218.3798802744804
 30
0.0
 11
722.993240054915
 21
218.3798802745004
 31
0.0
  0
ARC
  5
927
330
8F5
100
AcDbEntity
  8
0
  6
Continuous
 62
     7
100
AcDbCircle
 10
725.0005102572177
 20
238.8293700172998
 30
0.0
 40
8.05051025721835
100
AcDbArc
 50
90.0
 51
285.0000000002852
  0
LINE
  5
928
330
8F5
100
AcDbEntity
  8
0
  6
Continuous
 62
     7
100
AcDbLine
 10
743.811881885209
 20
235.5353603440998
 30
0.0
 11
727.0841356346063
 21
231.0531742451003
 31
0.0
  0
LINE
  5
929
330
8F5
100
AcDbEntity
  8
0
  6
Continuous
 62
     7
100
AcDbLine
 10
740.6299034298426
 20
239.2065863039497
 30
0.0
 11
723.9021571792108
 21
234.7244002048991
 31
0.0
  0
LINE
  5
92A
330
8F5
100
AcDbEntity
  8
0
  6
Continuous
 62
     7
100
AcDbLine
 10
722.6080619537096
 20
239.554029336401
 30
0.0
 11
739.3358082043123
 21
244.0362154354006
 31
0.0
  0
LINE
  5
92B
330
8F5
100
AcDbEntity
  8
0
  6
Continuous
 62
     4
100
AcDbLine
 10
735.0
 20
235.1298802745004
 30
0.0
 11
715.0
 21
235.1298802745004
 31
0.0
  0
LINE
  5
92C
330
8F5
100
AcDbEntity
  8
0
  6
Continuous
 62
     7
100
AcDbLine
 10
709.6568135115376
 20
242.5624046270695
 30
0.0
 11
712.5974962116161
 21
231.3929093313017
 31
0.0
  0
LINE
  5
92D
330
8F5
100
AcDbEntity
  8
0
  6
Continuous
 62
     7
100
AcDbLine
 10
723.9021571792108
 20
234.7244002048991
 30
0.0
 11
722.6080619537096
 21
239.554029336401
 31
0.0
  0
ARC
  5
92E
330
8F5
100
AcDbEntity
  8
0
  6
Continuous
 62
     7
100
AcDbCircle
 10
742.7135288072167
 20
231.4303905316992
 30
0.0
 40
13.0505102572179
100
AcDbArc
 50
0.0
 51
105.0000000001224
  0
LINE
  5
92F
330
8F5
100
AcDbEntity
  8
0
  6
Continuous
 62
     7
100
AcDbLine
 10
745.1059771107102
 20
230.7057312127017
 30
0.0
 11
743.811881885209
 21
235.5353603440998
 31
0.0
  0
ARC
  5
930
330
8F5
100
AcDbEntity
  8
0
  6
Continuous
 62
     7
100
AcDbCircle
 10
960.3647718703141
 20
226.8798802745004
 30
0.0
 40
25.00000000000309
100
AcDbArc
 50
44.9998689226894
 51
90.0
  0
ARC
  5
931
330
8F5
100
AcDbEntity
  8
0
  6
Continuous
 62
     7
100
AcDbCircle
 10
960.3647718703141
 20
226.8798802745004
 30
0.0
 40
20.0
100
AcDbArc
 50
44.99986892278152
 51
90.0
  0
LINE
  5
932
330
8F5
100
AcDbEntity
  8
0
  6
Continuous
 62
     7
100
AcDbLine
 10
1000.720007169307
 20
221.8798802745004
 30
0.0
 11
978.0424818417086
 21
244.5575093624011
 31
0.0
  0
ARC
  5
933
330
8F5
100
AcDbEntity
  8
0
  6
Continuous
 62
     7
100
AcDbCircle
 10
1467.713528807216
 20
3.699489742801233
 30
0.0
 40
8.050510257217869
100
AcDbArc
 50
254.9999999999107
 51
90.0
  0
LINE
  5
934
330
8F5
100
AcDbEntity
  8
0
  6
Continuous
 62
     7
100
AcDbLine
 10
1447.993240054915
 20
11.75
 30
0.0
 11
1467.713528807216
 21
11.75
 31
0.0
  0
LINE
  5
935
330
8F5
100
AcDbEntity
  8
0
  6
Continuous
 62
     7
100
AcDbLine
 10
1467.713528807216
 20
16.75000000002
 30
0.0
 11
1447.993240054915
 21
16.75
 31
0.0
  0
ARC
  5
936
330
8F5
100
AcDbEntity
  8
0
  6
Continuous
 62
     7
100
AcDbCircle
 10
1447.993240054915
 20
1.0
 30
0.0
 40
15.7500000000003
100
AcDbArc
 50
90.0
 51
165.250000000002
  0
ARC
  5
937
330
8F5
100
AcDbEntity
  8
0
  6
Continuous
 62
     7
100
AcDbCircle
 10
1447.993240054915
 20
1.0
 30
0.0
 40
10.7499999999999
100
AcDbArc
 50
90.0
 51
165.2500000000209
  0
LINE
  5
938
330
8F5
100
AcDbEntity
  8
0
  6
Continuous
 62
     4
100
AcDbLine
 10
1460.0
 20
0.0
 30
0.0
 11
1440.0
 21
0.0
 31
0.0
  0
LINE
  5
939
330
8F5
100
AcDbEntity
  8
0
  6
Continuous
 62
     7
100
AcDbLine
 10
1465.629903429842
 20
-4.076706029449269
 30
0.0
 11
1448.902157179211
 21
0.4054800696012535
 31
0.0
  0
LINE
  5
93A
330
8F5
100
AcDbEntity
  8
0
  6
Continuous
 62
     7
100
AcDbLine
 10
1448.902157179211
 20
0.4054800696012535
 30
0.0
 11
1447.608061953709
 21
-4.424149061900607
 31
0.0
  0
ARC
  5
93B
330
8F5
100
AcDbEntity
  8
0
  6
Continuous
 62
     7
100
AcDbCircle
 10
1467.713528807216
 20
3.699489742801233
 30
0.0
 40
13.0505102572179
100
AcDbArc
 50
0.0
 51
90.0
  0
ENDBLK
  5
8F7
330
8F5
100
AcDbEntity
  8
0
100
AcDbBlockEnd
  0
ENDSEC
  0
SECTION
  2
ENTITIES
  0
INSERT
  5
93C
330
1F
100
AcDbEntity
  8
PAZ4450
100
AcDbBlockReference
  2
paz4450
 10
916.3569655493889
 20
-744.4605276006268
 30
-0.0000000003672348
  0
VIEWPORT
  5
6A
330
1B
100
AcDbEntity
 67
     1
  8
0
100
AcDbViewport
 10
144.2296600341796
 20
98.97533035278321
 30
0.0
 40
348.3547377345459
 41
222.1517806396484
 68
     1
 69
     1
 12
144.2296600341796
 22
98.97533035278321
 13
0.0
 23
0.0
 14
10.0
 24
10.0
 15
10.0
 25
10.0
 16
0.0
 26
0.0
 36
1.0
 17
0.0
 27
0.0
 37
0.0
 42
50.0
 43
0.0
 44
0.0
 45
222.1517806396484
 50
0.0
 51
0.0
 72
   100
 90
    32800
  1

281
     0
 71
     1
 74
     0
110
0.0
120
0.0
130
0.0
111
1.0
121
0.0
131
0.0
112
0.0
122
1.0
132
0.0
 79
     0
146
0.0
  0
VIEWPORT
  5
6C
330
1B
100
AcDbEntity
 67
     1
  8
0
100
AcDbViewport
 10
144.2296578884124
 20
98.97533607482911
 30
0.0
 40
230.7674526214599
 41
158.3605377197265
 68
     2
 69
     2
 12
471.9925402099685
 22
207.0118385025535
 13
0.0
 23
0.0
 14
10.0
 24
10.0
 15
10.0
 25
10.0
 16
0.0
 26
0.0
 36
1.0
 17
0.0
 27
0.0
 37
0.0
 42
50.0
 43
0.0
 44
0.0
 45
537.2024815614429
 50
0.0
 51
0.0
 72
   100
 90
    32864
  1

281
     0
 71
     1
 74
     0
110
330.2484756222961
120
239.5669321729576
130
0.0
111
1.0
121
0.0
131
0.0
112
0.0
122
1.0
132
0.0
 79
     0
146
0.0
  0
ENDSEC
  0
SECTION
  2
OBJECTS
  0
DICTIONARY
  5
C
330
0
100
AcDbDictionary
281
     1
  3
ACAD_GROUP
350
D
  3
ACAD_LAYOUT
350
1A
  3
ACAD_MLINESTYLE
350
17
  3
ACAD_PLOTSETTINGS
350
19
  3
ACAD_PLOTSTYLENAME
350
E
  3
AcDbVariableDictionary
350
44
  0
DICTIONARY
  5
2B
330
2
100
AcDbDictionary
280
     1
281
     1
  3
ACAD_LAYERFILTERS
360
2C
  0
DICTIONARY
  5
D
102
{ACAD_REACTORS
330
C
102
}
330
C
100
AcDbDictionary
281
     1
  0
DICTIONARY
  5
1A
102
{ACAD_REACTORS
330
C
102
}
330
C
100
AcDbDictionary
281
     1
  3
Layout1
350
1E
  3
Model
350
22
  0
DICTIONARY
  5
17
102
{ACAD_REACTORS
330
C
102
}
330
C
100
AcDbDictionary
281
     1
  3
Standard
350
18
  0
DICTIONARY
  5
19
102
{ACAD_REACTORS
330
C
102
}
330
C
100
AcDbDictionary
281
     1
  0
ACDBDICTIONARYWDFLT
  5
E
102
{ACAD_REACTORS
330
C
102
}
330
C
100
AcDbDictionary
281
     1
  3
Normal
350
F
100
AcDbDictionaryWithDefault
340
F
  0
DICTIONARY
  5
44
102
{ACAD_REACTORS
330
C
102
}
330
C
100
AcDbDictionary
281
     1
  3
DIMASSOC
350
46
  3
HIDETEXT
350
45
  0
DICTIONARY
  5
2C
102
{ACAD_REACTORS
330
2B
102
}
330
2B
100
AcDbDictionary
280
     1
281
     1
  3
GEO
360
2D
  3
RAK
360
2E
  3
RAK&GEO
360
2F
  0
LAYOUT
  5
1E
102
{ACAD_REACTORS
330
1A
102
}
330
1A
100
AcDbPlotSettings
  1

  2
\\AOBSRV1\FIN9
  4
A4
  6

 40
6.011333465576171
 41
4.233341693878173
 42
6.011322021484375
 43
4.23333740234375
 44
209.9733276367187
 45
296.9259948730469
 46
0.0
 47
0.0
 48
0.0
 49
0.0
140
0.0
141
0.0
142
1.0
143
1.0
 70
   688
 72
     1
 73
     1
 74
     5
  7

 75
    16
147
1.0
148
0.0
149
0.0
100
AcDbLayout
  1
Layout1
 70
     1
 71
     1
 10
-4.23333740234375
 20
-6.011333465576171
 11
292.6926574707031
 21
203.9619941711425
 12
0.0
 22
0.0
 32
0.0
 14
28.8459315776825
 24
19.79506721496582
 34
0.0
 15
259.6133841991424
 25
178.1556049346923
 35
0.0
146
0.0
 13
0.0
 23
0.0
 33
0.0
 16
1.0
 26
0.0
 36
0.0
 17
0.0
 27
1.0
 37
0.0
 76
     0
330
1B
331
6A
  0
LAYOUT
  5
22
102
{ACAD_REACTORS
330
1A
102
}
330
1A
100
AcDbPlotSettings
  1

  2
\\AOBSRV1\FIN9
  4

  6

 40
0.0
 41
0.0
 42
0.0
 43
0.0
 44
0.0
 45
0.0
 46
0.0
 47
0.0
 48
0.0
 49
0.0
140
0.0
141
0.0
142
1.0
143
1.0
 70
  1712
 72
     0
 73
     0
 74
     0
  7

 75
     0
147
1.0
148
0.0
149
0.0
100
AcDbLayout
  1
Model
 70
     1
 71
     0
 10
0.0
 20
0.0
 11
12.0
 21
9.0
 12
0.0
 22
0.0
 32
0.0
 14
0.0
 24
0.0
 34
0.0
 15
0.0
 25
0.0
 35
0.0
146
0.0
 13
0.0
 23
0.0
 33
0.0
 16
1.0
 26
0.0
 36
0.0
 17
0.0
 27
1.0
 37
0.0
 76
     0
330
1F
  0
MLINESTYLE
  5
18
102
{ACAD_REACTORS
330
17
102
}
330
17
100
AcDbMlineStyle
  2
STANDARD
 70
     0
  3

 62
   256
 51
90.0
 52
90.0
 71
     2
 49
0.5
 62
   256
  6
BYLAYER
 49
-0.5
 62
   256
  6
BYLAYER
  0
ACDBPLACEHOLDER
  5
F
102
{ACAD_REACTORS
330
E
102
}
330
E
  0
DICTIONARYVAR
  5
46
102
{ACAD_REACTORS
330
44
102
}
330
44
100
DictionaryVariables
280
     0
  1
2
  0
DICTIONARYVAR
  5
45
102
{ACAD_REACTORS
330
44
102
}
330
44
100
DictionaryVariables
280
     0
  1
1
  0
XRECORD
  5
2D
102
{ACAD_REACTORS
330
2C
102
}
330
2C
100
AcDbXrecord
280
     1
  1
GEO
  1
GEO-*
  1
*
  1
*
 70
     0
  1
*
  1
*
  0
XRECORD
  5
2E
102
{ACAD_REACTORS
330
2C
102
}
330
2C
100
AcDbXrecord
280
     1
  1
RAK
  1
RAK-*
  1
*
  1
*
 70
     0
  1
*
  1
*
  0
XRECORD
  5
2F
102
{ACAD_REACTORS
330
2C
102
}
330
2C
100
AcDbXrecord
280
     1
  1
RAK&GEO
  1
RAK-*,GEO-*
  1
*
  1
*
 70
     0
  1
*
  1
*
  0
ENDSEC
  0
EOF
